ISO-10303-21;
HEADER;
FILE_DESCRIPTION (( 'STEP AP203' ),
    '1' );
FILE_NAME ('110-1411E UVFS pl-cx 38.1 F100.STEP',
    '2018-12-13T15:05:57',
    ( '' ),
    ( '' ),
    'SwSTEP 2.0',
    'SolidWorks 2017',
    '' );
FILE_SCHEMA (( 'CONFIG_CONTROL_DESIGN' ));
ENDSEC;

DATA;
#1 = CARTESIAN_POINT ( 'NONE',  ( -19.73690715838442600, -6.810067751749128800, 2.706796727053494900 ) ) ;
#2 = CC_DESIGN_PERSON_AND_ORGANIZATION_ASSIGNMENT ( #125, #183, ( #95 ) ) ;
#3 = COORDINATED_UNIVERSAL_TIME_OFFSET ( 2, 0, .AHEAD. ) ;
#4 = PERSON_AND_ORGANIZATION_ROLE ( 'design_owner' ) ;
#5 = DIRECTION ( 'NONE',  ( 1.000000000000000000, 0.0000000000000000000, 0.0000000000000000000 ) ) ;
#6 = ADVANCED_FACE ( 'NONE', ( #111 ), #222, .T. ) ;
#7 = ORIENTED_EDGE ( 'NONE', *, *, #103, .T. ) ;
#8 = ADVANCED_FACE ( 'NONE', ( #204 ), #110, .T. ) ;
#9 = APPROVAL_PERSON_ORGANIZATION ( #153, #116, #205 ) ;
#10 = DIRECTION ( 'NONE',  ( 0.0000000000000000000, 0.0000000000000000000, 1.000000000000000000 ) ) ;
#11 = AXIS2_PLACEMENT_3D ( 'NONE', #75, #53, #94 ) ;
#12 = COORDINATED_UNIVERSAL_TIME_OFFSET ( 2, 0, .AHEAD. ) ;
#13 = CARTESIAN_POINT ( 'NONE',  ( -19.05000000000000400, 1.444773732675583000E-015, 6.900000000000000400 ) ) ;
#14 = CARTESIAN_POINT ( 'NONE',  ( -11.97749650156263500, 19.26530561976664300, 5.316462154021707900 ) ) ;
#15 = LOCAL_TIME ( 17, 5, 57.00000000000000000, #215 ) ;
#16 = ORIENTED_EDGE ( 'NONE', *, *, #120, .T. ) ;
#17 = CARTESIAN_POINT ( 'NONE',  ( 0.0000000000000000000, 39.06600000000000300, 6.900000000000000400 ) ) ;
#18 = DIRECTION ( 'NONE',  ( 1.000000000000000000, 0.0000000000000000000, -3.084289765114799800E-016 ) ) ;
#19 = AXIS2_PLACEMENT_3D ( 'NONE', #136, #89, #73 ) ;
#20 = DIRECTION ( 'NONE',  ( 1.000000000000000000, 0.0000000000000000000, 0.0000000000000000000 ) ) ;
#21 = AXIS2_PLACEMENT_3D ( 'NONE', #225, #90, #33 ) ;
#22 = ORIENTED_EDGE ( 'NONE', *, *, #115, .T. ) ;
#23 = APPLICATION_CONTEXT ( 'configuration controlled 3d designs of mechanical parts and assemblies' ) ;
#24 = PERSON_AND_ORGANIZATION_ROLE ( 'classification_officer' ) ;
#25 = EDGE_LOOP ( 'NONE', ( #206, #7, #16 ) ) ;
#26 = DATE_AND_TIME ( #109, #138 ) ;
#27 = CIRCLE ( 'NONE', #129, 19.05000000000000100 ) ;
#28 = EDGE_LOOP ( 'NONE', ( #150, #22, #165, #155, #83 ) ) ;
#29 = APPROVAL ( #184, 'UNSPECIFIED' ) ;
#30 = CIRCLE ( 'NONE', #224, 47.60999999999999200 ) ;
#31 = CLOSED_SHELL ( 'NONE', ( #6, #8, #170, #62, #220 ) ) ;
#32 = EDGE_LOOP ( 'NONE', ( #54, #200, #196, #78, #208 ) ) ;
#33 = DIRECTION ( 'NONE',  ( 1.000000000000000000, 0.0000000000000000000, 0.0000000000000000000 ) ) ;
#34 = CARTESIAN_POINT ( 'NONE',  ( -8.022827398871877600E-015, 6.810067751749141300, -1.439395188424495800 ) ) ;
#35 = CIRCLE ( 'NONE', #145, 19.05000000000000100 ) ;
#36 = DIRECTION ( 'NONE',  ( 0.0000000000000000000, 0.0000000000000000000, 1.000000000000000000 ) ) ;
#37 = CARTESIAN_POINT ( 'NONE',  ( -13.49369626036719600, 6.810067751749133300, -0.03736549040280097400 ) ) ;
#38 = CARTESIAN_POINT ( 'NONE',  ( -4.662936703425659800E-015, -8.881784197001250400E-016, 3.977333338426360500 ) ) ;
#39 = CARTESIAN_POINT ( 'NONE',  ( -6.819685373449131800, -6.810067751749128800, -1.439395188424494700 ) ) ;
#40 = DIRECTION ( 'NONE',  ( 0.0000000000000000000, 0.0000000000000000000, 1.000000000000000000 ) ) ;
#41 = CC_DESIGN_APPROVAL ( #29, ( #162 ) ) ;
#42 = DATE_AND_TIME ( #49, #188 ) ;
#43 =( NAMED_UNIT ( * ) SI_UNIT ( $, .STERADIAN. ) SOLID_ANGLE_UNIT ( ) );
#44 = PERSON_AND_ORGANIZATION ( #186, #86 ) ;
#45 = CIRCLE ( 'NONE', #19, 19.05000000000000100 ) ;
#46 = AXIS2_PLACEMENT_3D ( 'NONE', #17, #40, #71 ) ;
#47 = CC_DESIGN_PERSON_AND_ORGANIZATION_ASSIGNMENT ( #48, #167, ( #133 ) ) ;
#48 = PERSON_AND_ORGANIZATION ( #186, #86 ) ;
#49 = CALENDAR_DATE ( 2018, 13, 12 ) ;
#50 = CARTESIAN_POINT ( 'NONE',  ( -6.322962827274209500E-015, -19.26530561976663200, 4.071969505075364800 ) ) ;
#51 = APPROVAL_DATE_TIME ( #117, #29 ) ;
#52 = CIRCLE ( 'NONE', #137, 19.05000000000000100 ) ;
#53 = DIRECTION ( 'NONE',  ( -0.0000000000000000000, -0.0000000000000000000, -1.000000000000000000 ) ) ;
#54 = ORIENTED_EDGE ( 'NONE', *, *, #115, .F. ) ;
#55 = CARTESIAN_POINT ( 'NONE',  ( 7.105427357601000300E-015, 1.065814103640150000E-014, 47.60999999999999900 ) ) ;
#56 = LOCAL_TIME ( 17, 5, 57.00000000000000000, #12 ) ;
#57 = CIRCLE ( 'NONE', #11, 19.05000000000000100 ) ;
#58 = APPROVAL_ROLE ( '' ) ;
#59 = DIRECTION ( 'NONE',  ( 0.0000000000000000000, 0.0000000000000000000, 1.000000000000000000 ) ) ;
#60 = PERSON_AND_ORGANIZATION ( #186, #86 ) ;
#61 = FACE_OUTER_BOUND ( 'NONE', #97, .T. ) ;
#62 = ADVANCED_FACE ( 'NONE', ( #173 ), #134, .T. ) ;
#63 = APPROVAL_DATE_TIME ( #42, #116 ) ;
#64 = CARTESIAN_POINT ( 'NONE',  ( -6.322962827274209500E-015, 19.26530561976664700, 4.071969505075364800 ) ) ;
#65 = CARTESIAN_POINT ( 'NONE',  ( 6.053401242042024700, 19.26530561976665400, 4.071969505075363000 ) ) ;
#66 = APPROVAL_DATE_TIME ( #168, #228 ) ;
#67 = CARTESIAN_POINT ( 'NONE',  ( 13.49369626036718900, 6.810067751749140400, -0.03736549040280791300 ) ) ;
#68 = VERTEX_POINT ( 'NONE', #119 ) ;
#69 = CC_DESIGN_PERSON_AND_ORGANIZATION_ASSIGNMENT ( #44, #223, ( #133 ) ) ;
#70 = CARTESIAN_POINT ( 'NONE',  ( 17.51919799288434400, -19.26530561976663200, 7.752280533589171800 ) ) ;
#71 = DIRECTION ( 'NONE',  ( 1.000000000000000000, 0.0000000000000000000, -0.0000000000000000000 ) ) ;
#72 = VERTEX_POINT ( 'NONE', #211 ) ;
#73 = DIRECTION ( 'NONE',  ( 1.000000000000000000, 8.881784197001252300E-016, 0.0000000000000000000 ) ) ;
#74 =( BOUNDED_SURFACE ( )  B_SPLINE_SURFACE ( 3, 3, ( 
 ( #122, #123, #216, #77 ),
 ( #1, #105, #39, #104 ),
 ( #93, #37, #159, #180 ),
 ( #160, #14, #201, #233 ) ),
 .UNSPECIFIED., .F., .F., .F. ) 
 B_SPLINE_SURFACE_WITH_KNOTS ( ( 4, 4 ),
 ( 4, 4 ),
 ( 0.0000000000000000000, 1.000000000000000000 ),
 ( 0.0000000000000000000, 1.000000000000000000 ),
 .UNSPECIFIED. ) 
 GEOMETRIC_REPRESENTATION_ITEM ( )  RATIONAL_B_SPLINE_SURFACE ( (
 ( 1.000000000000000000, 0.9857594127828645000, 0.9857594127828645000, 1.000000000000000000),
 ( 0.9429815934316968500, 0.9295529818062793200, 0.9295529818062793200, 0.9429815934316968500),
 ( 0.9429815934316968500, 0.9295529818062793200, 0.9295529818062793200, 0.9429815934316968500),
 ( 1.000000000000000000, 0.9857594127828645000, 0.9857594127828645000, 1.000000000000000000) ) ) 
 REPRESENTATION_ITEM ( '' )  SURFACE ( )  );
#75 = CARTESIAN_POINT ( 'NONE',  ( -4.662936703425659800E-015, -8.881784197001250400E-016, 6.900000000000000400 ) ) ;
#76 = CARTESIAN_POINT ( 'NONE',  ( 19.04999999999999700, -8.881784197001250400E-016, 3.977333338426360500 ) ) ;
#77 = CARTESIAN_POINT ( 'NONE',  ( -1.734723475976807100E-014, -19.26530561976663200, 4.071969505075362200 ) ) ;
#78 = ORIENTED_EDGE ( 'NONE', *, *, #210, .T. ) ;
#79 = EDGE_CURVE ( 'NONE', #131, #234, #45, .T. ) ;
#80 = FACE_OUTER_BOUND ( 'NONE', #25, .T. ) ;
#81 =( LENGTH_UNIT ( ) NAMED_UNIT ( * ) SI_UNIT ( .MILLI., .METRE. ) );
#82 = CC_DESIGN_PERSON_AND_ORGANIZATION_ASSIGNMENT ( #230, #4, ( #226 ) ) ;
#83 = ORIENTED_EDGE ( 'NONE', *, *, #79, .F. ) ;
#84 = EDGE_CURVE ( 'NONE', #101, #72, #27, .T. ) ;
#85 = MANIFOLD_SOLID_BREP ( 'Imported1', #31 ) ;
#86 = ORGANIZATION ( 'UNSPECIFIED', 'UNSPECIFIED', '' ) ;
#87 = VECTOR ( 'NONE', #142, 1000.000000000000000 ) ;
#88 = CARTESIAN_POINT ( 'NONE',  ( 17.51919799288434400, 19.26530561976664700, 7.752280533589171800 ) ) ;
#89 = DIRECTION ( 'NONE',  ( -0.0000000000000000000, -0.0000000000000000000, -1.000000000000000000 ) ) ;
#90 = DIRECTION ( 'NONE',  ( 0.0000000000000000000, 0.0000000000000000000, 1.000000000000000000 ) ) ;
#91 = VECTOR ( 'NONE', #36, 1000.000000000000000 ) ;
#92 = DIRECTION ( 'NONE',  ( 1.000000000000000000, 0.0000000000000000000, 0.0000000000000000000 ) ) ;
#93 = CARTESIAN_POINT ( 'NONE',  ( -19.73690715838442200, 6.810067751749132400, 2.706796727053499800 ) ) ;
#94 = DIRECTION ( 'NONE',  ( 1.000000000000000000, 0.0000000000000000000, 0.0000000000000000000 ) ) ;
#95 = PRODUCT_DEFINITION ( 'UNKNOWN', '', #133, #98 ) ;
#96 = LINE ( 'NONE', #76, #87 ) ;
#97 = EDGE_LOOP ( 'NONE', ( #118, #209 ) ) ;
#98 = DESIGN_CONTEXT ( 'detailed design', #23, 'design' ) ;
#99 =( GEOMETRIC_REPRESENTATION_CONTEXT ( 3 ) GLOBAL_UNCERTAINTY_ASSIGNED_CONTEXT ( ( #235 ) ) GLOBAL_UNIT_ASSIGNED_CONTEXT ( ( #81, #219, #43 ) ) REPRESENTATION_CONTEXT ( 'NONE', 'WORKASPACE' ) );
#100 = PERSON_AND_ORGANIZATION ( #186, #86 ) ;
#101 = VERTEX_POINT ( 'NONE', #13 ) ;
#102 = APPROVAL_PERSON_ORGANIZATION ( #100, #228, #58 ) ;
#103 = EDGE_CURVE ( 'NONE', #68, #178, #166, .T. ) ;
#104 = CARTESIAN_POINT ( 'NONE',  ( -2.081668171172168800E-014, -6.810067751749128800, -1.439395188424498400 ) ) ;
#105 = CARTESIAN_POINT ( 'NONE',  ( -13.49369626036720100, -6.810067751749128800, -0.03736549040280574800 ) ) ;
#106 = LOCAL_TIME ( 17, 5, 57.00000000000000000, #191 ) ;
#107 = CARTESIAN_POINT ( 'NONE',  ( -4.662936703425659800E-015, -8.881784197001250400E-016, 6.900000000000000400 ) ) ;
#108 = DIRECTION ( 'NONE',  ( 1.000000000000000000, 0.0000000000000000000, 0.0000000000000000000 ) ) ;
#109 = CALENDAR_DATE ( 2018, 13, 12 ) ;
#110 = CYLINDRICAL_SURFACE ( 'NONE', #135, 19.05000000000000100 ) ;
#111 = FACE_OUTER_BOUND ( 'NONE', #218, .T. ) ;
#112 = CC_DESIGN_DATE_AND_TIME_ASSIGNMENT ( #26, #113, ( #95 ) ) ;
#113 = DATE_TIME_ROLE ( 'creation_date' ) ;
#114 = ORIENTED_EDGE ( 'NONE', *, *, #79, .T. ) ;
#115 = EDGE_CURVE ( 'NONE', #178, #101, #163, .T. ) ;
#116 = APPROVAL ( #147, 'UNSPECIFIED' ) ;
#117 = DATE_AND_TIME ( #187, #56 ) ;
#118 = ORIENTED_EDGE ( 'NONE', *, *, #217, .F. ) ;
#119 = CARTESIAN_POINT ( 'NONE',  ( -6.352151363294731400E-015, -19.04999999999999000, 3.977333338426360900 ) ) ;
#120 = EDGE_CURVE ( 'NONE', #178, #131, #52, .T. ) ;
#121 = CARTESIAN_POINT ( 'NONE',  ( -8.022827398871879100E-015, -6.810067751749127000, -1.439395188424497800 ) ) ;
#122 = CARTESIAN_POINT ( 'NONE',  ( -17.51919799288434400, -19.26530561976663200, 7.752280533589173600 ) ) ;
#123 = CARTESIAN_POINT ( 'NONE',  ( -11.97749650156263500, -19.26530561976663600, 5.316462154021707900 ) ) ;
#124 = CARTESIAN_POINT ( 'NONE',  ( 0.0000000000000000000, 0.0000000000000000000, 0.0000000000000000000 ) ) ;
#125 = PERSON_AND_ORGANIZATION ( #186, #86 ) ;
#126 = CC_DESIGN_APPROVAL ( #116, ( #95 ) ) ;
#127 = PLANE ( 'NONE',  #46 ) ;
#128 = PRODUCT_DEFINITION_SHAPE ( 'NONE', 'NONE',  #95 ) ;
#129 = AXIS2_PLACEMENT_3D ( 'NONE', #107, #158, #212 ) ;
#130 = SECURITY_CLASSIFICATION_LEVEL ( 'unclassified' ) ;
#131 = VERTEX_POINT ( 'NONE', #214 ) ;
#132 = APPROVAL_STATUS ( 'not_yet_approved' ) ;
#133 = PRODUCT_DEFINITION_FORMATION_WITH_SPECIFIED_SOURCE ( 'ANY', '', #226, .NOT_KNOWN. ) ;
#134 = CYLINDRICAL_SURFACE ( 'NONE', #21, 19.05000000000000100 ) ;
#135 = AXIS2_PLACEMENT_3D ( 'NONE', #231, #10, #156 ) ;
#136 = CARTESIAN_POINT ( 'NONE',  ( -4.662936703425659800E-015, -8.881784197001250400E-016, 3.977333338426360500 ) ) ;
#137 = AXIS2_PLACEMENT_3D ( 'NONE', #38, #182, #20 ) ;
#138 = LOCAL_TIME ( 17, 5, 57.00000000000000000, #152 ) ;
#139 = CARTESIAN_POINT ( 'NONE',  ( 19.04999999999999700, -8.881784197001250400E-016, 3.977333338426360500 ) ) ;
#140 = DIRECTION ( 'NONE',  ( -0.0000000000000000000, -0.0000000000000000000, -1.000000000000000000 ) ) ;
#141 = AXIS2_PLACEMENT_3D ( 'NONE', #124, #59, #5 ) ;
#142 = DIRECTION ( 'NONE',  ( 0.0000000000000000000, 0.0000000000000000000, 1.000000000000000000 ) ) ;
#143 = APPLICATION_CONTEXT ( 'configuration controlled 3d designs of mechanical parts and assemblies' ) ;
#144 = CALENDAR_DATE ( 2018, 13, 12 ) ;
#145 = AXIS2_PLACEMENT_3D ( 'NONE', #179, #198, #108 ) ;
#146 = DATE_TIME_ROLE ( 'classification_date' ) ;
#147 = APPROVAL_STATUS ( 'not_yet_approved' ) ;
#148 = DATE_AND_TIME ( #229, #106 ) ;
#149 = APPLICATION_PROTOCOL_DEFINITION ( 'international standard', 'config_control_design', 1994, #143 ) ;
#150 = ORIENTED_EDGE ( 'NONE', *, *, #120, .F. ) ;
#151 = CC_DESIGN_APPROVAL ( #228, ( #133 ) ) ;
#152 = COORDINATED_UNIVERSAL_TIME_OFFSET ( 2, 0, .AHEAD. ) ;
#153 = PERSON_AND_ORGANIZATION ( #186, #86 ) ;
#154 = EDGE_CURVE ( 'NONE', #234, #68, #35, .T. ) ;
#155 = ORIENTED_EDGE ( 'NONE', *, *, #210, .F. ) ;
#156 = DIRECTION ( 'NONE',  ( 1.000000000000000000, 0.0000000000000000000, 0.0000000000000000000 ) ) ;
#157 = CARTESIAN_POINT ( 'NONE',  ( 6.819685373449110500, 6.810067751749140400, -1.439395188424498200 ) ) ;
#158 = DIRECTION ( 'NONE',  ( -0.0000000000000000000, -0.0000000000000000000, -1.000000000000000000 ) ) ;
#159 = CARTESIAN_POINT ( 'NONE',  ( -6.819685373449130900, 6.810067751749133300, -1.439395188424490400 ) ) ;
#160 = CARTESIAN_POINT ( 'NONE',  ( -17.51919799288434400, 19.26530561976663600, 7.752280533589173600 ) ) ;
#161 = CARTESIAN_POINT ( 'NONE',  ( -19.05000000000000400, 1.444773732675583000E-015, 3.977333338426360500 ) ) ;
#162 = SECURITY_CLASSIFICATION ( '', '', #130 ) ;
#163 = LINE ( 'NONE', #232, #91 ) ;
#164 = MECHANICAL_CONTEXT ( 'NONE', #143, 'mechanical' ) ;
#165 = ORIENTED_EDGE ( 'NONE', *, *, #84, .T. ) ;
#166 = CIRCLE ( 'NONE', #181, 19.05000000000000100 ) ;
#167 = PERSON_AND_ORGANIZATION_ROLE ( 'creator' ) ;
#168 = DATE_AND_TIME ( #144, #15 ) ;
#169 = ORIENTED_EDGE ( 'NONE', *, *, #207, .T. ) ;
#170 = ADVANCED_FACE ( 'NONE', ( #80 ), #74, .T. ) ;
#171 = CARTESIAN_POINT ( 'NONE',  ( 19.73690715838441900, 6.810067751749141300, 2.706796727053493600 ) ) ;
#172 = PERSON_AND_ORGANIZATION ( #186, #86 ) ;
#173 = FACE_OUTER_BOUND ( 'NONE', #32, .T. ) ;
#174 = ORIENTED_EDGE ( 'NONE', *, *, #154, .T. ) ;
#175 = CC_DESIGN_PERSON_AND_ORGANIZATION_ASSIGNMENT ( #172, #24, ( #162 ) ) ;
#176 = CARTESIAN_POINT ( 'NONE',  ( 6.053401242042024700, -19.26530561976663600, 4.071969505075363000 ) ) ;
#177 = CARTESIAN_POINT ( 'NONE',  ( 6.819685373449110500, -6.810067751749127900, -1.439395188424499800 ) ) ;
#178 = VERTEX_POINT ( 'NONE', #161 ) ;
#179 = CARTESIAN_POINT ( 'NONE',  ( -4.662936703425659800E-015, -8.881784197001250400E-016, 3.977333338426360500 ) ) ;
#180 = CARTESIAN_POINT ( 'NONE',  ( -2.081668171172168800E-014, 6.810067751749132400, -1.439395188424494000 ) ) ;
#181 = AXIS2_PLACEMENT_3D ( 'NONE', #213, #140, #92 ) ;
#182 = DIRECTION ( 'NONE',  ( -0.0000000000000000000, -0.0000000000000000000, -1.000000000000000000 ) ) ;
#183 = PERSON_AND_ORGANIZATION_ROLE ( 'creator' ) ;
#184 = APPROVAL_STATUS ( 'not_yet_approved' ) ;
#185 = APPROVAL_ROLE ( '' ) ;
#186 = PERSON ( 'UNSPECIFIED', 'UNSPECIFIED', 'UNSPECIFIED', ('UNSPECIFIED'), ('UNSPECIFIED'), ('UNSPECIFIED') ) ;
#187 = CALENDAR_DATE ( 2018, 13, 12 ) ;
#188 = LOCAL_TIME ( 17, 5, 57.00000000000000000, #3 ) ;
#189 = ADVANCED_BREP_SHAPE_REPRESENTATION ( '110-1411E UVFS pl-cx 38.1 F100', ( #85, #141 ), #99 ) ;
#190 = CC_DESIGN_SECURITY_CLASSIFICATION ( #162, ( #133 ) ) ;
#191 = COORDINATED_UNIVERSAL_TIME_OFFSET ( 2, 0, .AHEAD. ) ;
#192 = CARTESIAN_POINT ( 'NONE',  ( 13.49369626036719300, -6.810067751749127900, -0.03736549040281051500 ) ) ;
#193 = PRODUCT_RELATED_PRODUCT_CATEGORY ( 'detail', '', ( #226 ) ) ;
#194 = CARTESIAN_POINT ( 'NONE',  ( 11.97749650156263200, -19.26530561976663600, 5.316462154021706100 ) ) ;
#195 = CARTESIAN_POINT ( 'NONE',  ( 11.97749650156263200, 19.26530561976665400, 5.316462154021706100 ) ) ;
#196 = ORIENTED_EDGE ( 'NONE', *, *, #154, .F. ) ;
#197 = DIRECTION ( 'NONE',  ( 0.0000000000000000000, -1.000000000000000000, 0.0000000000000000000 ) ) ;
#198 = DIRECTION ( 'NONE',  ( -0.0000000000000000000, -0.0000000000000000000, -1.000000000000000000 ) ) ;
#199 = APPROVAL_PERSON_ORGANIZATION ( #60, #29, #185 ) ;
#200 = ORIENTED_EDGE ( 'NONE', *, *, #103, .F. ) ;
#201 = CARTESIAN_POINT ( 'NONE',  ( -6.053401242042040700, 19.26530561976664300, 4.071969505075365700 ) ) ;
#202 = CC_DESIGN_DATE_AND_TIME_ASSIGNMENT ( #148, #146, ( #162 ) ) ;
#203 = SHAPE_DEFINITION_REPRESENTATION ( #128, #189 ) ;
#204 = FACE_OUTER_BOUND ( 'NONE', #28, .T. ) ;
#205 = APPROVAL_ROLE ( '' ) ;
#206 = ORIENTED_EDGE ( 'NONE', *, *, #207, .F. ) ;
#207 = EDGE_CURVE ( 'NONE', #68, #131, #30, .T. ) ;
#208 = ORIENTED_EDGE ( 'NONE', *, *, #217, .T. ) ;
#209 = ORIENTED_EDGE ( 'NONE', *, *, #84, .F. ) ;
#210 = EDGE_CURVE ( 'NONE', #234, #72, #96, .T. ) ;
#211 = CARTESIAN_POINT ( 'NONE',  ( 19.04999999999999700, -8.881784197001250400E-016, 6.900000000000000400 ) ) ;
#212 = DIRECTION ( 'NONE',  ( 1.000000000000000000, 0.0000000000000000000, 0.0000000000000000000 ) ) ;
#213 = CARTESIAN_POINT ( 'NONE',  ( -4.662936703425659800E-015, -8.881784197001250400E-016, 3.977333338426360500 ) ) ;
#214 = CARTESIAN_POINT ( 'NONE',  ( -6.352151363294731400E-015, 19.05000000000000400, 3.977333338426360900 ) ) ;
#215 = COORDINATED_UNIVERSAL_TIME_OFFSET ( 2, 0, .AHEAD. ) ;
#216 = CARTESIAN_POINT ( 'NONE',  ( -6.053401242042040700, -19.26530561976663600, 4.071969505075365700 ) ) ;
#217 = EDGE_CURVE ( 'NONE', #72, #101, #57, .T. ) ;
#218 = EDGE_LOOP ( 'NONE', ( #174, #169, #114 ) ) ;
#219 =( NAMED_UNIT ( * ) PLANE_ANGLE_UNIT ( ) SI_UNIT ( $, .RADIAN. ) );
#220 = ADVANCED_FACE ( 'NONE', ( #61 ), #127, .T. ) ;
#221 = APPLICATION_PROTOCOL_DEFINITION ( 'international standard', 'config_control_design', 1994, #23 ) ;
#222 =( BOUNDED_SURFACE ( )  B_SPLINE_SURFACE ( 3, 3, ( 
 ( #50, #176, #194, #70 ),
 ( #121, #177, #192, #227 ),
 ( #34, #157, #67, #171 ),
 ( #64, #65, #195, #88 ) ),
 .UNSPECIFIED., .F., .F., .F. ) 
 B_SPLINE_SURFACE_WITH_KNOTS ( ( 4, 4 ),
 ( 4, 4 ),
 ( 0.0000000000000000000, 1.000000000000000000 ),
 ( 0.0000000000000000000, 1.000000000000000000 ),
 .UNSPECIFIED. ) 
 GEOMETRIC_REPRESENTATION_ITEM ( )  RATIONAL_B_SPLINE_SURFACE ( (
 ( 1.000000000000000000, 0.9857594127828645000, 0.9857594127828645000, 1.000000000000000000),
 ( 0.9429815934316968500, 0.9295529818062793200, 0.9295529818062793200, 0.9429815934316968500),
 ( 0.9429815934316968500, 0.9295529818062793200, 0.9295529818062793200, 0.9429815934316968500),
 ( 1.000000000000000000, 0.9857594127828645000, 0.9857594127828645000, 1.000000000000000000) ) ) 
 REPRESENTATION_ITEM ( '' )  SURFACE ( )  );
#223 = PERSON_AND_ORGANIZATION_ROLE ( 'design_supplier' ) ;
#224 = AXIS2_PLACEMENT_3D ( 'NONE', #55, #18, #197 ) ;
#225 = CARTESIAN_POINT ( 'NONE',  ( -4.662936703425659800E-015, -8.881784197001250400E-016, 3.977333338426360500 ) ) ;
#226 = PRODUCT ( '110-1411E UVFS pl-cx 38.1 F100', '110-1411E UVFS pl-cx 38.1 F100', '', ( #164 ) ) ;
#227 = CARTESIAN_POINT ( 'NONE',  ( 19.73690715838442200, -6.810067751749127000, 2.706796727053491400 ) ) ;
#228 = APPROVAL ( #132, 'UNSPECIFIED' ) ;
#229 = CALENDAR_DATE ( 2018, 13, 12 ) ;
#230 = PERSON_AND_ORGANIZATION ( #186, #86 ) ;
#231 = CARTESIAN_POINT ( 'NONE',  ( -4.662936703425659800E-015, -8.881784197001250400E-016, 3.977333338426360500 ) ) ;
#232 = CARTESIAN_POINT ( 'NONE',  ( -19.05000000000000400, 1.444773732675583000E-015, 3.977333338426360500 ) ) ;
#233 = CARTESIAN_POINT ( 'NONE',  ( -1.734723475976807100E-014, 19.26530561976663600, 4.071969505075362200 ) ) ;
#234 = VERTEX_POINT ( 'NONE', #139 ) ;
#235 = UNCERTAINTY_MEASURE_WITH_UNIT (LENGTH_MEASURE( 1.000000000000000100E-005 ), #81, 'distance_accuracy_value', 'NONE');
ENDSEC;
END-ISO-10303-21;
