ISO-10303-21;
HEADER;
FILE_DESCRIPTION (( 'STEP AP203' ),
    '1' );
FILE_NAME ('110-1409E UVFS pl-cx 38.1 F75.STEP',
    '2018-12-13T15:06:07',
    ( '' ),
    ( '' ),
    'SwSTEP 2.0',
    'SolidWorks 2017',
    '' );
FILE_SCHEMA (( 'CONFIG_CONTROL_DESIGN' ));
ENDSEC;

DATA;
#1 = CARTESIAN_POINT ( 'NONE',  ( -1.597303187740728300E-014, 19.05000000000001100, 5.505669184701352100 ) ) ;
#2 = CARTESIAN_POINT ( 'NONE',  ( -5.751928420407857300, -19.25351254186756800, 5.634987866999161100 ) ) ;
#3 = LOCAL_TIME ( 17, 6, 7.000000000000000000, #79 ) ;
#4 = PERSON_AND_ORGANIZATION_ROLE ( 'design_owner' ) ;
#5 = EDGE_CURVE ( 'NONE', #170, #19, #69, .T. ) ;
#6 = ORIENTED_EDGE ( 'NONE', *, *, #8, .F. ) ;
#7 = PERSON_AND_ORGANIZATION_ROLE ( 'classification_officer' ) ;
#8 = EDGE_CURVE ( 'NONE', #81, #30, #88, .T. ) ;
#9 = COORDINATED_UNIVERSAL_TIME_OFFSET ( 2, 0, .AHEAD. ) ;
#10 = LINE ( 'NONE', #50, #197 ) ;
#11 = DIRECTION ( 'NONE',  ( 1.000000000000000000, 0.0000000000000000000, -4.112098451893469900E-016 ) ) ;
#12 = DIRECTION ( 'NONE',  ( -4.662353909187010300E-017, -2.173754397451140100E-033, -1.000000000000000000 ) ) ;
#13 = ORIENTED_EDGE ( 'NONE', *, *, #63, .F. ) ;
#14 = PERSON_AND_ORGANIZATION ( #84, #83 ) ;
#15 = EDGE_CURVE ( 'NONE', #163, #30, #119, .T. ) ;
#16 = FACE_OUTER_BOUND ( 'NONE', #36, .T. ) ;
#17 = CARTESIAN_POINT ( 'NONE',  ( -20.27767912771563300, 7.172363434440941700, 3.798431237237454500 ) ) ;
#18 = DIRECTION ( 'NONE',  ( -4.662353909187010300E-017, -2.173754397451140100E-033, -1.000000000000000000 ) ) ;
#19 = VERTEX_POINT ( 'NONE', #150 ) ;
#20 = AXIS2_PLACEMENT_3D ( 'NONE', #33, #149, #110 ) ;
#21 = PERSON_AND_ORGANIZATION ( #84, #83 ) ;
#22 = PRODUCT_DEFINITION ( 'UNKNOWN', '', #194, #182 ) ;
#23 = APPROVAL_STATUS ( 'not_yet_approved' ) ;
#24 = ORIENTED_EDGE ( 'NONE', *, *, #222, .F. ) ;
#25 = MANIFOLD_SOLID_BREP ( 'Imported1', #154 ) ;
#26 = DATE_TIME_ROLE ( 'classification_date' ) ;
#27 = CC_DESIGN_PERSON_AND_ORGANIZATION_ASSIGNMENT ( #14, #4, ( #116 ) ) ;
#28 = CIRCLE ( 'NONE', #70, 35.71000000000000100 ) ;
#29 = APPROVAL_DATE_TIME ( #143, #80 ) ;
#30 = VERTEX_POINT ( 'NONE', #68 ) ;
#31 = AXIS2_PLACEMENT_3D ( 'NONE', #117, #12, #87 ) ;
#32 = CARTESIAN_POINT ( 'NONE',  ( -1.591985476207951100E-014, -19.25351254186756500, 5.634987866999157500 ) ) ;
#33 = CARTESIAN_POINT ( 'NONE',  ( -4.518668049695405100E-015, -8.881784197001250400E-016, 8.599999999999999600 ) ) ;
#34 = AXIS2_PLACEMENT_3D ( 'NONE', #57, #18, #218 ) ;
#35 = CC_DESIGN_APPROVAL ( #48, ( #231 ) ) ;
#36 = EDGE_LOOP ( 'NONE', ( #77, #209, #215 ) ) ;
#37 = CARTESIAN_POINT ( 'NONE',  ( 19.04999999999999700, -8.881784197001250400E-016, 8.599999999999997900 ) ) ;
#38 = DIRECTION ( 'NONE',  ( -4.662353909187010300E-017, -2.173754397451140100E-033, -1.000000000000000000 ) ) ;
#39 = AXIS2_PLACEMENT_3D ( 'NONE', #157, #58, #223 ) ;
#40 = CYLINDRICAL_SURFACE ( 'NONE', #39, 19.05000000000000100 ) ;
#41 =( LENGTH_UNIT ( ) NAMED_UNIT ( * ) SI_UNIT ( .MILLI., .METRE. ) );
#42 = PERSON_AND_ORGANIZATION ( #84, #83 ) ;
#43 = AXIS2_PLACEMENT_3D ( 'NONE', #229, #122, #228 ) ;
#44 = ADVANCED_FACE ( 'NONE', ( #16 ), #169, .T. ) ;
#45 = CIRCLE ( 'NONE', #144, 19.05000000000000100 ) ;
#46 = APPLICATION_PROTOCOL_DEFINITION ( 'international standard', 'config_control_design', 1994, #166 ) ;
#47 = APPROVAL_DATE_TIME ( #100, #48 ) ;
#48 = APPROVAL ( #124, 'UNSPECIFIED' ) ;
#49 = CALENDAR_DATE ( 2018, 13, 12 ) ;
#50 = CARTESIAN_POINT ( 'NONE',  ( 19.04999999999999700, -8.881784197001250400E-016, 5.505669184701349500 ) ) ;
#51 = VERTEX_POINT ( 'NONE', #1 ) ;
#52 = CARTESIAN_POINT ( 'NONE',  ( -19.05000000000000400, 1.444773732675583000E-015, 5.505669184701351200 ) ) ;
#53 = LOCAL_TIME ( 17, 6, 7.000000000000000000, #189 ) ;
#54 = CC_DESIGN_APPROVAL ( #80, ( #194 ) ) ;
#55 = CARTESIAN_POINT ( 'NONE',  ( -1.910021202951939800E-014, 7.172363434440941700, -2.099158833636012300 ) ) ;
#56 = ORIENTED_EDGE ( 'NONE', *, *, #5, .F. ) ;
#57 = CARTESIAN_POINT ( 'NONE',  ( -4.662936703425659800E-015, -8.881784197001250400E-016, 5.505669184701351200 ) ) ;
#58 = DIRECTION ( 'NONE',  ( 4.662353909187010300E-017, 2.173754397451140100E-033, 1.000000000000000000 ) ) ;
#59 = CARTESIAN_POINT ( 'NONE',  ( -11.27500319074981900, 19.25351254186758600, 7.241327069878634500 ) ) ;
#60 = CARTESIAN_POINT ( 'NONE',  ( -16.12972794445260000, 19.25351254186758300, 10.32618170491103600 ) ) ;
#61 = APPROVAL_PERSON_ORGANIZATION ( #21, #80, #188 ) ;
#62 = APPROVAL_ROLE ( '' ) ;
#63 = EDGE_CURVE ( 'NONE', #19, #51, #28, .T. ) ;
#64 = ORIENTED_EDGE ( 'NONE', *, *, #172, .F. ) ;
#65 = EDGE_LOOP ( 'NONE', ( #71, #108, #56, #174, #113 ) ) ;
#66 = EDGE_CURVE ( 'NONE', #170, #81, #10, .T. ) ;
#67 = DIRECTION ( 'NONE',  ( 4.662353909187010300E-017, 2.173754397451140100E-033, 1.000000000000000000 ) ) ;
#68 = CARTESIAN_POINT ( 'NONE',  ( -19.05000000000000400, 1.444773732675583000E-015, 8.600000000000001400 ) ) ;
#69 = CIRCLE ( 'NONE', #31, 19.05000000000000100 ) ;
#70 = AXIS2_PLACEMENT_3D ( 'NONE', #105, #11, #128 ) ;
#71 = ORIENTED_EDGE ( 'NONE', *, *, #15, .F. ) ;
#72 = CARTESIAN_POINT ( 'NONE',  ( -2.081668171172168500E-014, -19.25351254186756500, 5.634987866999157500 ) ) ;
#73 = ORIENTED_EDGE ( 'NONE', *, *, #179, .F. ) ;
#74 = DATE_AND_TIME ( #49, #152 ) ;
#75 =( NAMED_UNIT ( * ) PLANE_ANGLE_UNIT ( ) SI_UNIT ( $, .RADIAN. ) );
#76 = CARTESIAN_POINT ( 'NONE',  ( -20.27767912771563300, -7.172363434440923900, 3.798431237237458000 ) ) ;
#77 = ORIENTED_EDGE ( 'NONE', *, *, #5, .T. ) ;
#78 = APPROVAL_STATUS ( 'not_yet_approved' ) ;
#79 = COORDINATED_UNIVERSAL_TIME_OFFSET ( 2, 0, .AHEAD. ) ;
#80 = APPROVAL ( #23, 'UNSPECIFIED' ) ;
#81 = VERTEX_POINT ( 'NONE', #37 ) ;
#82 = CARTESIAN_POINT ( 'NONE',  ( 5.751928420407832500, -19.25351254186756100, 5.634987866999154900 ) ) ;
#83 = ORGANIZATION ( 'UNSPECIFIED', 'UNSPECIFIED', '' ) ;
#84 = PERSON ( 'UNSPECIFIED', 'UNSPECIFIED', 'UNSPECIFIED', ('UNSPECIFIED'), ('UNSPECIFIED'), ('UNSPECIFIED') ) ;
#85 = CARTESIAN_POINT ( 'NONE',  ( 14.17450422309362100, -7.172363434440923900, -0.07973041931715182900 ) ) ;
#86 = CC_DESIGN_PERSON_AND_ORGANIZATION_ASSIGNMENT ( #181, #164, ( #194 ) ) ;
#87 = DIRECTION ( 'NONE',  ( 1.000000000000000000, 0.0000000000000000000, -4.553079989440438700E-017 ) ) ;
#88 = CIRCLE ( 'NONE', #20, 19.05000000000000100 ) ;
#89 = DIRECTION ( 'NONE',  ( -4.662353909187010300E-017, -2.173754397451140100E-033, -1.000000000000000000 ) ) ;
#90 = CARTESIAN_POINT ( 'NONE',  ( 19.04999999999999700, -8.881784197001250400E-016, 5.505669184701350400 ) ) ;
#91 = CARTESIAN_POINT ( 'NONE',  ( -2.428612866367530200E-014, -7.172363434440923900, -2.099158833636009600 ) ) ;
#92 =( NAMED_UNIT ( * ) SI_UNIT ( $, .STERADIAN. ) SOLID_ANGLE_UNIT ( ) );
#93 = CARTESIAN_POINT ( 'NONE',  ( -2.081668171172168500E-014, 19.25351254186758300, 5.634987866999152200 ) ) ;
#94 = CC_DESIGN_SECURITY_CLASSIFICATION ( #231, ( #194 ) ) ;
#95 = CALENDAR_DATE ( 2018, 13, 12 ) ;
#96 = APPROVAL_ROLE ( '' ) ;
#97 = FACE_OUTER_BOUND ( 'NONE', #187, .T. ) ;
#98 = APPLICATION_CONTEXT ( 'configuration controlled 3d designs of mechanical parts and assemblies' ) ;
#99 = CALENDAR_DATE ( 2018, 13, 12 ) ;
#100 = DATE_AND_TIME ( #103, #3 ) ;
#101 = CARTESIAN_POINT ( 'NONE',  ( 14.17450422309362100, 7.172363434440940800, -0.07973041931715356400 ) ) ;
#102 = CIRCLE ( 'NONE', #112, 19.05000000000000100 ) ;
#103 = CALENDAR_DATE ( 2018, 13, 12 ) ;
#104 = PRODUCT_RELATED_PRODUCT_CATEGORY ( 'detail', '', ( #116 ) ) ;
#105 = CARTESIAN_POINT ( 'NONE',  ( -3.552713678800500100E-015, 1.065814103640150000E-014, 35.71000000000000100 ) ) ;
#106 = APPROVAL ( #78, 'UNSPECIFIED' ) ;
#107 = CARTESIAN_POINT ( 'NONE',  ( -14.17450422309363300, 7.172363434440941700, -0.07973041931714705500 ) ) ;
#108 = ORIENTED_EDGE ( 'NONE', *, *, #216, .F. ) ;
#109 = ADVANCED_FACE ( 'NONE', ( #140 ), #147, .T. ) ;
#110 = DIRECTION ( 'NONE',  ( 1.000000000000000000, 0.0000000000000000000, -9.106159978880877400E-017 ) ) ;
#111 = CARTESIAN_POINT ( 'NONE',  ( 16.12972794445259700, 19.25351254186758300, 10.32618170491103600 ) ) ;
#112 = AXIS2_PLACEMENT_3D ( 'NONE', #221, #158, #184 ) ;
#113 = ORIENTED_EDGE ( 'NONE', *, *, #8, .T. ) ;
#114 = PERSON_AND_ORGANIZATION ( #84, #83 ) ;
#115 = CC_DESIGN_PERSON_AND_ORGANIZATION_ASSIGNMENT ( #126, #7, ( #231 ) ) ;
#116 = PRODUCT ( '110-1409E UVFS pl-cx 38.1 F75', '110-1409E UVFS pl-cx 38.1 F75', '', ( #208 ) ) ;
#117 = CARTESIAN_POINT ( 'NONE',  ( -4.662936703425659800E-015, -8.881784197001250400E-016, 5.505669184701351200 ) ) ;
#118 = CARTESIAN_POINT ( 'NONE',  ( -5.751928420407858200, 19.25351254186758600, 5.634987866999155800 ) ) ;
#119 = LINE ( 'NONE', #52, #220 ) ;
#120 = CARTESIAN_POINT ( 'NONE',  ( -4.662936703425659800E-015, -8.881784197001250400E-016, 5.505669184701351200 ) ) ;
#121 = DIRECTION ( 'NONE',  ( 4.662353909187010300E-017, 2.173754397451140100E-033, 1.000000000000000000 ) ) ;
#122 = DIRECTION ( 'NONE',  ( 0.0000000000000000000, 0.0000000000000000000, 1.000000000000000000 ) ) ;
#123 = ORIENTED_EDGE ( 'NONE', *, *, #179, .T. ) ;
#124 = APPROVAL_STATUS ( 'not_yet_approved' ) ;
#125 = FACE_OUTER_BOUND ( 'NONE', #65, .T. ) ;
#126 = PERSON_AND_ORGANIZATION ( #84, #83 ) ;
#127 = AXIS2_PLACEMENT_3D ( 'NONE', #161, #121, #136 ) ;
#128 = DIRECTION ( 'NONE',  ( 0.0000000000000000000, -1.000000000000000000, 0.0000000000000000000 ) ) ;
#129 = ORIENTED_EDGE ( 'NONE', *, *, #15, .T. ) ;
#130 = CARTESIAN_POINT ( 'NONE',  ( 7.231105154177885000, 7.172363434440940800, -2.099158833636015000 ) ) ;
#131 = PERSON_AND_ORGANIZATION ( #84, #83 ) ;
#132 = CYLINDRICAL_SURFACE ( 'NONE', #127, 19.05000000000000100 ) ;
#133 = DIRECTION ( 'NONE',  ( 0.0000000000000000000, 0.0000000000000000000, 1.000000000000000000 ) ) ;
#134 = CARTESIAN_POINT ( 'NONE',  ( -4.518668049695405100E-015, -8.881784197001250400E-016, 8.599999999999999600 ) ) ;
#135 = LOCAL_TIME ( 17, 6, 7.000000000000000000, #165 ) ;
#136 = DIRECTION ( 'NONE',  ( 1.000000000000000000, 0.0000000000000000000, -4.553079989440438700E-017 ) ) ;
#137 = DIRECTION ( 'NONE',  ( 1.000000000000000000, -8.881784197001252300E-016, -4.553079989440438700E-017 ) ) ;
#138 = CARTESIAN_POINT ( 'NONE',  ( -16.12972794445259700, -19.25351254186756500, 10.32618170491104000 ) ) ;
#139 = LOCAL_TIME ( 17, 6, 7.000000000000000000, #9 ) ;
#140 = FACE_OUTER_BOUND ( 'NONE', #175, .T. ) ;
#141 = DATE_TIME_ROLE ( 'creation_date' ) ;
#142 = PRODUCT_DEFINITION_SHAPE ( 'NONE', 'NONE',  #22 ) ;
#143 = DATE_AND_TIME ( #168, #139 ) ;
#144 = AXIS2_PLACEMENT_3D ( 'NONE', #134, #89, #178 ) ;
#145 = CARTESIAN_POINT ( 'NONE',  ( 20.27767912771562900, -7.172363434440923900, 3.798431237237458000 ) ) ;
#146 = CIRCLE ( 'NONE', #34, 19.05000000000000100 ) ;
#147 = PLANE ( 'NONE',  #162 ) ;
#148 = ADVANCED_BREP_SHAPE_REPRESENTATION ( '110-1409E UVFS pl-cx 38.1 F75', ( #25, #43 ), #190 ) ;
#149 = DIRECTION ( 'NONE',  ( -4.662353909187010300E-017, -2.173754397451140100E-033, -1.000000000000000000 ) ) ;
#150 = CARTESIAN_POINT ( 'NONE',  ( -1.597303187740728300E-014, -19.04999999999999700, 5.505669184701352100 ) ) ;
#151 = ORIENTED_EDGE ( 'NONE', *, *, #216, .T. ) ;
#152 = LOCAL_TIME ( 17, 6, 7.000000000000000000, #227 ) ;
#153 = UNCERTAINTY_MEASURE_WITH_UNIT (LENGTH_MEASURE( 1.000000000000000100E-005 ), #41, 'distance_accuracy_value', 'NONE');
#154 = CLOSED_SHELL ( 'NONE', ( #44, #180, #219, #224, #109 ) ) ;
#155 = CARTESIAN_POINT ( 'NONE',  ( 7.231105154177885000, -7.172363434440923900, -2.099158833636013200 ) ) ;
#156 = CC_DESIGN_DATE_AND_TIME_ASSIGNMENT ( #203, #141, ( #22 ) ) ;
#157 = CARTESIAN_POINT ( 'NONE',  ( -4.662936703425659800E-015, -8.881784197001250400E-016, 5.505669184701350400 ) ) ;
#158 = DIRECTION ( 'NONE',  ( -4.662353909187010300E-017, -2.173754397451140100E-033, -1.000000000000000000 ) ) ;
#159 = EDGE_LOOP ( 'NONE', ( #64, #129, #123, #167, #24 ) ) ;
#160 = CARTESIAN_POINT ( 'NONE',  ( -7.231105154177913400, -7.172363434440923900, -2.099158833636005600 ) ) ;
#161 = CARTESIAN_POINT ( 'NONE',  ( -4.662936703425659800E-015, -8.881784197001250400E-016, 5.505669184701350400 ) ) ;
#162 = AXIS2_PLACEMENT_3D ( 'NONE', #193, #133, #183 ) ;
#163 = VERTEX_POINT ( 'NONE', #200 ) ;
#164 = PERSON_AND_ORGANIZATION_ROLE ( 'design_supplier' ) ;
#165 = COORDINATED_UNIVERSAL_TIME_OFFSET ( 2, 0, .AHEAD. ) ;
#166 = APPLICATION_CONTEXT ( 'configuration controlled 3d designs of mechanical parts and assemblies' ) ;
#167 = ORIENTED_EDGE ( 'NONE', *, *, #66, .F. ) ;
#168 = CALENDAR_DATE ( 2018, 13, 12 ) ;
#169 =( BOUNDED_SURFACE ( )  B_SPLINE_SURFACE ( 3, 3, ( 
 ( #32, #82, #173, #212 ),
 ( #211, #155, #85, #145 ),
 ( #55, #130, #101, #234 ),
 ( #198, #214, #232, #111 ) ),
 .UNSPECIFIED., .F., .F., .T. ) 
 B_SPLINE_SURFACE_WITH_KNOTS ( ( 4, 4 ),
 ( 4, 4 ),
 ( 0.0000000000000000000, 1.000000000000000000 ),
 ( 0.0000000000000000000, 1.000000000000000000 ),
 .UNSPECIFIED. ) 
 GEOMETRIC_REPRESENTATION_ITEM ( )  RATIONAL_B_SPLINE_SURFACE ( (
 ( 1.000000000000000000, 0.9734751393110870900, 0.9734751393110870900, 1.000000000000000000),
 ( 0.8948009359283271000, 0.8710664657585193100, 0.8710664657585193100, 0.8948009359283271000),
 ( 0.8948009359283271000, 0.8710664657585193100, 0.8710664657585193100, 0.8948009359283271000),
 ( 1.000000000000000000, 0.9734751393110870900, 0.9734751393110870900, 1.000000000000000000) ) ) 
 REPRESENTATION_ITEM ( '' )  SURFACE ( )  );
#170 = VERTEX_POINT ( 'NONE', #90 ) ;
#171 = APPROVAL_DATE_TIME ( #225, #106 ) ;
#172 = EDGE_CURVE ( 'NONE', #163, #51, #146, .T. ) ;
#173 = CARTESIAN_POINT ( 'NONE',  ( 11.27500319074980300, -19.25351254186756100, 7.241327069878630100 ) ) ;
#174 = ORIENTED_EDGE ( 'NONE', *, *, #66, .T. ) ;
#175 = EDGE_LOOP ( 'NONE', ( #6, #73 ) ) ;
#176 = CC_DESIGN_APPROVAL ( #106, ( #22 ) ) ;
#177 = SHAPE_DEFINITION_REPRESENTATION ( #142, #148 ) ;
#178 = DIRECTION ( 'NONE',  ( 1.000000000000000000, 0.0000000000000000000, -9.106159978880877400E-017 ) ) ;
#179 = EDGE_CURVE ( 'NONE', #30, #81, #45, .T. ) ;
#180 = ADVANCED_FACE ( 'NONE', ( #191 ), #132, .T. ) ;
#181 = PERSON_AND_ORGANIZATION ( #84, #83 ) ;
#182 = DESIGN_CONTEXT ( 'detailed design', #166, 'design' ) ;
#183 = DIRECTION ( 'NONE',  ( 1.000000000000000000, 0.0000000000000000000, -0.0000000000000000000 ) ) ;
#184 = DIRECTION ( 'NONE',  ( 1.000000000000000000, 0.0000000000000000000, -4.553079989440438700E-017 ) ) ;
#185 = SECURITY_CLASSIFICATION_LEVEL ( 'unclassified' ) ;
#186 = APPLICATION_PROTOCOL_DEFINITION ( 'international standard', 'config_control_design', 1994, #98 ) ;
#187 = EDGE_LOOP ( 'NONE', ( #13, #151, #213 ) ) ;
#188 = APPROVAL_ROLE ( '' ) ;
#189 = COORDINATED_UNIVERSAL_TIME_OFFSET ( 2, 0, .AHEAD. ) ;
#190 =( GEOMETRIC_REPRESENTATION_CONTEXT ( 3 ) GLOBAL_UNCERTAINTY_ASSIGNED_CONTEXT ( ( #153 ) ) GLOBAL_UNIT_ASSIGNED_CONTEXT ( ( #41, #75, #92 ) ) REPRESENTATION_CONTEXT ( 'NONE', 'WORKASPACE' ) );
#191 = FACE_OUTER_BOUND ( 'NONE', #159, .T. ) ;
#192 = DIRECTION ( 'NONE',  ( 4.662353909187010300E-017, 2.173754397451140100E-033, 1.000000000000000000 ) ) ;
#193 = CARTESIAN_POINT ( 'NONE',  ( 0.0000000000000000000, 39.06600000000000300, 8.599999999999999600 ) ) ;
#194 = PRODUCT_DEFINITION_FORMATION_WITH_SPECIFIED_SOURCE ( 'ANY', '', #116, .NOT_KNOWN. ) ;
#195 =( BOUNDED_SURFACE ( )  B_SPLINE_SURFACE ( 3, 3, ( 
 ( #138, #199, #2, #72 ),
 ( #76, #202, #160, #91 ),
 ( #17, #107, #204, #201 ),
 ( #60, #59, #118, #93 ) ),
 .UNSPECIFIED., .F., .F., .F. ) 
 B_SPLINE_SURFACE_WITH_KNOTS ( ( 4, 4 ),
 ( 4, 4 ),
 ( 0.0000000000000000000, 1.000000000000000000 ),
 ( 0.0000000000000000000, 1.000000000000000000 ),
 .UNSPECIFIED. ) 
 GEOMETRIC_REPRESENTATION_ITEM ( )  RATIONAL_B_SPLINE_SURFACE ( (
 ( 1.000000000000000000, 0.9734751393110872000, 0.9734751393110872000, 1.000000000000000000),
 ( 0.8948009359283271000, 0.8710664657585194300, 0.8710664657585194300, 0.8948009359283271000),
 ( 0.8948009359283271000, 0.8710664657585194300, 0.8710664657585194300, 0.8948009359283271000),
 ( 1.000000000000000000, 0.9734751393110872000, 0.9734751393110872000, 1.000000000000000000) ) ) 
 REPRESENTATION_ITEM ( '' )  SURFACE ( )  );
#196 = PERSON_AND_ORGANIZATION ( #84, #83 ) ;
#197 = VECTOR ( 'NONE', #67, 1000.000000000000000 ) ;
#198 = CARTESIAN_POINT ( 'NONE',  ( -1.591985476207951400E-014, 19.25351254186758300, 5.634987866999154000 ) ) ;
#199 = CARTESIAN_POINT ( 'NONE',  ( -11.27500319074981600, -19.25351254186756800, 7.241327069878638100 ) ) ;
#200 = CARTESIAN_POINT ( 'NONE',  ( -19.05000000000000400, 1.444773732675583000E-015, 5.505669184701352100 ) ) ;
#201 = CARTESIAN_POINT ( 'NONE',  ( -2.428612866367530200E-014, 7.172363434440941700, -2.099158833636012700 ) ) ;
#202 = CARTESIAN_POINT ( 'NONE',  ( -14.17450422309363300, -7.172363434440923900, -0.07973041931714357200 ) ) ;
#203 = DATE_AND_TIME ( #99, #53 ) ;
#204 = CARTESIAN_POINT ( 'NONE',  ( -7.231105154177913400, 7.172363434440941700, -2.099158833636009200 ) ) ;
#205 = PERSON_AND_ORGANIZATION_ROLE ( 'creator' ) ;
#206 = CC_DESIGN_PERSON_AND_ORGANIZATION_ASSIGNMENT ( #114, #207, ( #22 ) ) ;
#207 = PERSON_AND_ORGANIZATION_ROLE ( 'creator' ) ;
#208 = MECHANICAL_CONTEXT ( 'NONE', #98, 'mechanical' ) ;
#209 = ORIENTED_EDGE ( 'NONE', *, *, #63, .T. ) ;
#210 = AXIS2_PLACEMENT_3D ( 'NONE', #120, #38, #137 ) ;
#211 = CARTESIAN_POINT ( 'NONE',  ( -1.910021202951939100E-014, -7.172363434440923900, -2.099158833636010500 ) ) ;
#212 = CARTESIAN_POINT ( 'NONE',  ( 16.12972794445259300, -19.25351254186756500, 10.32618170491104000 ) ) ;
#213 = ORIENTED_EDGE ( 'NONE', *, *, #172, .T. ) ;
#214 = CARTESIAN_POINT ( 'NONE',  ( 5.751928420407833400, 19.25351254186757900, 5.634987866999151300 ) ) ;
#215 = ORIENTED_EDGE ( 'NONE', *, *, #222, .T. ) ;
#216 = EDGE_CURVE ( 'NONE', #19, #163, #102, .T. ) ;
#217 = APPROVAL_PERSON_ORGANIZATION ( #131, #48, #96 ) ;
#218 = DIRECTION ( 'NONE',  ( 1.000000000000000000, 8.881784197001252300E-016, -4.553079989440438700E-017 ) ) ;
#219 = ADVANCED_FACE ( 'NONE', ( #97 ), #195, .T. ) ;
#220 = VECTOR ( 'NONE', #192, 1000.000000000000000 ) ;
#221 = CARTESIAN_POINT ( 'NONE',  ( -4.662936703425659800E-015, -8.881784197001250400E-016, 5.505669184701351200 ) ) ;
#222 = EDGE_CURVE ( 'NONE', #51, #170, #233, .T. ) ;
#223 = DIRECTION ( 'NONE',  ( 1.000000000000000000, 0.0000000000000000000, -4.553079989440438700E-017 ) ) ;
#224 = ADVANCED_FACE ( 'NONE', ( #125 ), #40, .T. ) ;
#225 = DATE_AND_TIME ( #95, #135 ) ;
#226 = CC_DESIGN_PERSON_AND_ORGANIZATION_ASSIGNMENT ( #42, #205, ( #194 ) ) ;
#227 = COORDINATED_UNIVERSAL_TIME_OFFSET ( 2, 0, .AHEAD. ) ;
#228 = DIRECTION ( 'NONE',  ( 1.000000000000000000, 0.0000000000000000000, 0.0000000000000000000 ) ) ;
#229 = CARTESIAN_POINT ( 'NONE',  ( 0.0000000000000000000, 0.0000000000000000000, 0.0000000000000000000 ) ) ;
#230 = APPROVAL_PERSON_ORGANIZATION ( #196, #106, #62 ) ;
#231 = SECURITY_CLASSIFICATION ( '', '', #185 ) ;
#232 = CARTESIAN_POINT ( 'NONE',  ( 11.27500319074980700, 19.25351254186757900, 7.241327069878628300 ) ) ;
#233 = CIRCLE ( 'NONE', #210, 19.05000000000000100 ) ;
#234 = CARTESIAN_POINT ( 'NONE',  ( 20.27767912771562900, 7.172363434440941700, 3.798431237237456200 ) ) ;
#235 = CC_DESIGN_DATE_AND_TIME_ASSIGNMENT ( #74, #26, ( #231 ) ) ;
ENDSEC;
END-ISO-10303-21;
