ISO-10303-21;
HEADER;
FILE_DESCRIPTION (( 'STEP AP203' ),
    '1' );
FILE_NAME ('110-1405E UVFS pl-cx 38.1 F50.STEP',
    '2018-12-13T15:06:17',
    ( '' ),
    ( '' ),
    'SwSTEP 2.0',
    'SolidWorks 2017',
    '' );
FILE_SCHEMA (( 'CONFIG_CONTROL_DESIGN' ));
ENDSEC;

DATA;
#1 = APPROVAL_STATUS ( 'not_yet_approved' ) ;
#2 = PRODUCT ( '110-1405E UVFS pl-cx 38.1 F50', '110-1405E UVFS pl-cx 38.1 F50', '', ( #37 ) ) ;
#3 = DIRECTION ( 'NONE',  ( 0.0000000000000000000, 0.0000000000000000000, 1.000000000000000000 ) ) ;
#4 = LINE ( 'NONE', #201, #143 ) ;
#5 = APPLICATION_PROTOCOL_DEFINITION ( 'international standard', 'config_control_design', 1994, #97 ) ;
#6 = AXIS2_PLACEMENT_3D ( 'NONE', #207, #167, #14 ) ;
#7 = CARTESIAN_POINT ( 'NONE',  ( 19.04999999999999700, -8.881784197001250400E-016, 13.50000000000000000 ) ) ;
#8 = APPROVAL_DATE_TIME ( #178, #88 ) ;
#9 = EDGE_CURVE ( 'NONE', #213, #118, #109, .T. ) ;
#10 = CC_DESIGN_APPROVAL ( #193, ( #79 ) ) ;
#11 = DIRECTION ( 'NONE',  ( -0.0000000000000000000, -0.0000000000000000000, -1.000000000000000000 ) ) ;
#12 = DIRECTION ( 'NONE',  ( 0.0000000000000000000, 0.0000000000000000000, 1.000000000000000000 ) ) ;
#13 = PERSON_AND_ORGANIZATION ( #154, #173 ) ;
#14 = DIRECTION ( 'NONE',  ( 1.000000000000000000, 0.0000000000000000000, 0.0000000000000000000 ) ) ;
#15 = AXIS2_PLACEMENT_3D ( 'NONE', #36, #70, #192 ) ;
#16 = CARTESIAN_POINT ( 'NONE',  ( -5.329070518200749800E-015, 19.04999999999999400, 9.533343068539139200 ) ) ;
#17 = DATE_AND_TIME ( #226, #84 ) ;
#18 = ORIENTED_EDGE ( 'NONE', *, *, #30, .T. ) ;
#19 = CARTESIAN_POINT ( 'NONE',  ( -19.05000000000000400, 1.444773732675583000E-015, 9.533343068539139200 ) ) ;
#20 = ADVANCED_FACE ( 'NONE', ( #196 ), #29, .T. ) ;
#21 = PERSON_AND_ORGANIZATION_ROLE ( 'creator' ) ;
#22 = CIRCLE ( 'NONE', #198, 19.05000000000000100 ) ;
#23 = EDGE_LOOP ( 'NONE', ( #62, #74, #131, #42, #199 ) ) ;
#24 = FACE_OUTER_BOUND ( 'NONE', #48, .T. ) ;
#25 = AXIS2_PLACEMENT_3D ( 'NONE', #76, #220, #114 ) ;
#26 = FACE_OUTER_BOUND ( 'NONE', #23, .T. ) ;
#27 = CLOSED_SHELL ( 'NONE', ( #116, #20, #137, #157, #72 ) ) ;
#28 = CC_DESIGN_DATE_AND_TIME_ASSIGNMENT ( #17, #120, ( #182 ) ) ;
#29 = CYLINDRICAL_SURFACE ( 'NONE', #211, 19.05000000000000100 ) ;
#30 = EDGE_CURVE ( 'NONE', #213, #149, #106, .T. ) ;
#31 = CARTESIAN_POINT ( 'NONE',  ( -4.662936703425659800E-015, -8.881784197001250400E-016, 13.50000000000000000 ) ) ;
#32 = CIRCLE ( 'NONE', #25, 19.05000000000000100 ) ;
#33 = CARTESIAN_POINT ( 'NONE',  ( 8.594354721131445300, 19.20768831615907900, 11.78943951588466100 ) ) ;
#34 = CC_DESIGN_DATE_AND_TIME_ASSIGNMENT ( #160, #60, ( #79 ) ) ;
#35 = CARTESIAN_POINT ( 'NONE',  ( -9.132223441427694200, -8.806915655824308700, -4.468804185999971400 ) ) ;
#36 = CARTESIAN_POINT ( 'NONE',  ( 0.0000000000000000000, 39.06600000000000300, 13.50000000000000000 ) ) ;
#37 = MECHANICAL_CONTEXT ( 'NONE', #97, 'mechanical' ) ;
#38 =( NAMED_UNIT ( * ) PLANE_ANGLE_UNIT ( ) SI_UNIT ( $, .RADIAN. ) );
#39 = DIRECTION ( 'NONE',  ( -0.0000000000000000000, -0.0000000000000000000, -1.000000000000000000 ) ) ;
#40 = CALENDAR_DATE ( 2018, 13, 12 ) ;
#41 = AXIS2_PLACEMENT_3D ( 'NONE', #113, #221, #218 ) ;
#42 = ORIENTED_EDGE ( 'NONE', *, *, #58, .T. ) ;
#43 = UNCERTAINTY_MEASURE_WITH_UNIT (LENGTH_MEASURE( 1.000000000000000100E-005 ), #174, 'distance_accuracy_value', 'NONE');
#44 = EDGE_CURVE ( 'NONE', #118, #181, #128, .T. ) ;
#45 = CIRCLE ( 'NONE', #71, 19.05000000000000100 ) ;
#46 =( BOUNDED_SURFACE ( )  B_SPLINE_SURFACE ( 3, 3, ( 
 ( #69, #233, #187, #75 ),
 ( #133, #171, #235, #146 ),
 ( #203, #129, #53, #68 ),
 ( #90, #150, #33, #119 ) ),
 .UNSPECIFIED., .F., .F., .F. ) 
 B_SPLINE_SURFACE_WITH_KNOTS ( ( 4, 4 ),
 ( 4, 4 ),
 ( 0.0000000000000000000, 1.000000000000000000 ),
 ( 0.0000000000000000000, 1.000000000000000000 ),
 .UNSPECIFIED. ) 
 GEOMETRIC_REPRESENTATION_ITEM ( )  RATIONAL_B_SPLINE_SURFACE ( (
 ( 1.000000000000000000, 0.9286807348953553000, 0.9286807348953553000, 1.000000000000000000),
 ( 0.7269926296862856400, 0.6751440496005666200, 0.6751440496005666200, 0.7269926296862856400),
 ( 0.7269926296862856400, 0.6751440496005666200, 0.6751440496005666200, 0.7269926296862856400),
 ( 1.000000000000000000, 0.9286807348953553000, 0.9286807348953553000, 1.000000000000000000) ) ) 
 REPRESENTATION_ITEM ( '' )  SURFACE ( )  );
#47 = DIRECTION ( 'NONE',  ( -0.0000000000000000000, -0.0000000000000000000, -1.000000000000000000 ) ) ;
#48 = EDGE_LOOP ( 'NONE', ( #179, #223, #163 ) ) ;
#49 = CYLINDRICAL_SURFACE ( 'NONE', #141, 19.05000000000000100 ) ;
#50 = ORIENTED_EDGE ( 'NONE', *, *, #176, .T. ) ;
#51 = CARTESIAN_POINT ( 'NONE',  ( -9.132223441427695900, 8.806915655824292700, -4.468804185999964300 ) ) ;
#52 = CARTESIAN_POINT ( 'NONE',  ( -11.29554609072879000, -19.20768831615909600, 15.43846018597606000 ) ) ;
#53 = CARTESIAN_POINT ( 'NONE',  ( 17.28749168593431300, 8.806915655824290900, -0.3591685763256877200 ) ) ;
#54 = COORDINATED_UNIVERSAL_TIME_OFFSET ( 2, 0, .AHEAD. ) ;
#55 = CARTESIAN_POINT ( 'NONE',  ( -1.040834085586084300E-014, 19.20768831615907500, 9.746363120199603700 ) ) ;
#56 = APPROVAL_ROLE ( '' ) ;
#57 = DIRECTION ( 'NONE',  ( 1.000000000000000000, 0.0000000000000000000, 0.0000000000000000000 ) ) ;
#58 = EDGE_CURVE ( 'NONE', #181, #140, #4, .T. ) ;
#59 = CARTESIAN_POINT ( 'NONE',  ( 0.0000000000000000000, 0.0000000000000000000, 0.0000000000000000000 ) ) ;
#60 = DATE_TIME_ROLE ( 'creation_date' ) ;
#61 = CC_DESIGN_PERSON_AND_ORGANIZATION_ASSIGNMENT ( #170, #77, ( #162 ) ) ;
#62 = ORIENTED_EDGE ( 'NONE', *, *, #30, .F. ) ;
#63 = EDGE_CURVE ( 'NONE', #228, #118, #99, .T. ) ;
#64 = CALENDAR_DATE ( 2018, 13, 12 ) ;
#65 = DIRECTION ( 'NONE',  ( 0.0000000000000000000, 0.0000000000000000000, 1.000000000000000000 ) ) ;
#66 = CARTESIAN_POINT ( 'NONE',  ( -4.662936703425659800E-015, -8.881784197001250400E-016, 9.533343068539139200 ) ) ;
#67 = COORDINATED_UNIVERSAL_TIME_OFFSET ( 2, 0, .AHEAD. ) ;
#68 = CARTESIAN_POINT ( 'NONE',  ( 22.72092151973153000, 8.806915655824285600, 6.980814068433334200 ) ) ;
#69 = CARTESIAN_POINT ( 'NONE',  ( -5.329070518200749800E-015, -19.20768831615909300, 9.746363120199603700 ) ) ;
#70 = DIRECTION ( 'NONE',  ( 0.0000000000000000000, 0.0000000000000000000, 1.000000000000000000 ) ) ;
#71 = AXIS2_PLACEMENT_3D ( 'NONE', #155, #39, #57 ) ;
#72 = ADVANCED_FACE ( 'NONE', ( #195 ), #227, .T. ) ;
#73 = DATE_AND_TIME ( #64, #210 ) ;
#74 = ORIENTED_EDGE ( 'NONE', *, *, #176, .F. ) ;
#75 = CARTESIAN_POINT ( 'NONE',  ( 11.29554609072877200, -19.20768831615909600, 15.43846018597605700 ) ) ;
#76 = CARTESIAN_POINT ( 'NONE',  ( -4.662936703425659800E-015, -8.881784197001250400E-016, 13.50000000000000000 ) ) ;
#77 = PERSON_AND_ORGANIZATION_ROLE ( 'creator' ) ;
#78 = LOCAL_TIME ( 17, 6, 17.00000000000000000, #54 ) ;
#79 = PRODUCT_DEFINITION ( 'UNKNOWN', '', #162, #177 ) ;
#80 = CARTESIAN_POINT ( 'NONE',  ( -11.29554609072880600, 19.20768831615907100, 15.43846018597607300 ) ) ;
#81 = APPROVAL_STATUS ( 'not_yet_approved' ) ;
#82 = PERSON_AND_ORGANIZATION ( #154, #173 ) ;
#83 = EDGE_CURVE ( 'NONE', #149, #140, #32, .T. ) ;
#84 = LOCAL_TIME ( 17, 6, 17.00000000000000000, #202 ) ;
#85 = CARTESIAN_POINT ( 'NONE',  ( -19.05000000000000400, 1.444773732675583000E-015, 9.533343068539139200 ) ) ;
#86 = VECTOR ( 'NONE', #12, 1000.000000000000000 ) ;
#87 = DIRECTION ( 'NONE',  ( 1.000000000000000000, 0.0000000000000000000, 0.0000000000000000000 ) ) ;
#88 = APPROVAL ( #81, 'UNSPECIFIED' ) ;
#89 = CIRCLE ( 'NONE', #6, 19.05000000000000100 ) ;
#90 = CARTESIAN_POINT ( 'NONE',  ( -5.329070518200749800E-015, 19.20768831615907500, 9.746363120199603700 ) ) ;
#91 = EDGE_CURVE ( 'NONE', #181, #228, #89, .T. ) ;
#92 = DIRECTION ( 'NONE',  ( 1.000000000000000000, 0.0000000000000000000, 0.0000000000000000000 ) ) ;
#93 = ORIENTED_EDGE ( 'NONE', *, *, #83, .T. ) ;
#94 = DIRECTION ( 'NONE',  ( 1.000000000000000000, 0.0000000000000000000, 0.0000000000000000000 ) ) ;
#95 = APPROVAL_STATUS ( 'not_yet_approved' ) ;
#96 = EDGE_CURVE ( 'NONE', #140, #149, #22, .T. ) ;
#97 = APPLICATION_CONTEXT ( 'configuration controlled 3d designs of mechanical parts and assemblies' ) ;
#98 = APPROVAL_PERSON_ORGANIZATION ( #82, #88, #225 ) ;
#99 = CIRCLE ( 'NONE', #41, 23.80000000000000100 ) ;
#100 = CARTESIAN_POINT ( 'NONE',  ( -8.594354721131466600, 19.20768831615907500, 11.78943951588466800 ) ) ;
#101 = CC_DESIGN_PERSON_AND_ORGANIZATION_ASSIGNMENT ( #108, #21, ( #79 ) ) ;
#102 = CC_DESIGN_APPROVAL ( #111, ( #182 ) ) ;
#103 = ORIENTED_EDGE ( 'NONE', *, *, #9, .F. ) ;
#104 = LOCAL_TIME ( 17, 6, 17.00000000000000000, #67 ) ;
#105 = CC_DESIGN_SECURITY_CLASSIFICATION ( #182, ( #162 ) ) ;
#106 = LINE ( 'NONE', #85, #86 ) ;
#107 = CARTESIAN_POINT ( 'NONE',  ( -4.662936703425659800E-015, -8.881784197001250400E-016, 9.533343068539139200 ) ) ;
#108 = PERSON_AND_ORGANIZATION ( #154, #173 ) ;
#109 = CIRCLE ( 'NONE', #188, 19.05000000000000100 ) ;
#110 = DIRECTION ( 'NONE',  ( 0.0000000000000000000, 0.0000000000000000000, 1.000000000000000000 ) ) ;
#111 = APPROVAL ( #1, 'UNSPECIFIED' ) ;
#112 = CARTESIAN_POINT ( 'NONE',  ( -1.387778780781445700E-014, -8.806915655824308700, -4.468804185999974100 ) ) ;
#113 = CARTESIAN_POINT ( 'NONE',  ( -5.329070518200749800E-015, -7.105427357601000300E-015, 23.80000000000000100 ) ) ;
#114 = DIRECTION ( 'NONE',  ( 1.000000000000000000, 0.0000000000000000000, 0.0000000000000000000 ) ) ;
#115 = CC_DESIGN_PERSON_AND_ORGANIZATION_ASSIGNMENT ( #122, #172, ( #182 ) ) ;
#116 = ADVANCED_FACE ( 'NONE', ( #24 ), #46, .T. ) ;
#117 = FACE_OUTER_BOUND ( 'NONE', #232, .T. ) ;
#118 = VERTEX_POINT ( 'NONE', #16 ) ;
#119 = CARTESIAN_POINT ( 'NONE',  ( 11.29554609072879100, 19.20768831615907100, 15.43846018597606600 ) ) ;
#120 = DATE_TIME_ROLE ( 'classification_date' ) ;
#121 = DIRECTION ( 'NONE',  ( 0.0000000000000000000, 0.0000000000000000000, 1.000000000000000000 ) ) ;
#122 = PERSON_AND_ORGANIZATION ( #154, #173 ) ;
#123 = CARTESIAN_POINT ( 'NONE',  ( -4.540020557876537100, 19.20768831615907500, 9.746363120199603700 ) ) ;
#124 = SHAPE_DEFINITION_REPRESENTATION ( #144, #231 ) ;
#125 = EDGE_LOOP ( 'NONE', ( #103, #18, #93, #161, #219 ) ) ;
#126 = DATE_AND_TIME ( #205, #156 ) ;
#127 = CARTESIAN_POINT ( 'NONE',  ( -4.662936703425659800E-015, -8.881784197001250400E-016, 9.533343068539139200 ) ) ;
#128 = CIRCLE ( 'NONE', #200, 19.05000000000000100 ) ;
#129 = CARTESIAN_POINT ( 'NONE',  ( 9.132223441427679900, 8.806915655824292700, -4.468804185999970500 ) ) ;
#130 = PERSON_AND_ORGANIZATION ( #154, #173 ) ;
#131 = ORIENTED_EDGE ( 'NONE', *, *, #91, .F. ) ;
#132 = CARTESIAN_POINT ( 'NONE',  ( -4.540020557876527400, -19.20768831615909600, 9.746363120199601900 ) ) ;
#133 = CARTESIAN_POINT ( 'NONE',  ( -5.329070518200749800E-015, -8.806915655824308700, -4.468804185999974100 ) ) ;
#134 = DIRECTION ( 'NONE',  ( -0.0000000000000000000, -0.0000000000000000000, -1.000000000000000000 ) ) ;
#135 = APPROVAL_ROLE ( '' ) ;
#136 = CARTESIAN_POINT ( 'NONE',  ( -19.05000000000000400, 1.444773732675583000E-015, 13.50000000000000000 ) ) ;
#137 = ADVANCED_FACE ( 'NONE', ( #117 ), #175, .T. ) ;
#138 = ORIENTED_EDGE ( 'NONE', *, *, #9, .T. ) ;
#139 = PRODUCT_RELATED_PRODUCT_CATEGORY ( 'detail', '', ( #2 ) ) ;
#140 = VERTEX_POINT ( 'NONE', #7 ) ;
#141 = AXIS2_PLACEMENT_3D ( 'NONE', #169, #121, #159 ) ;
#142 = COORDINATED_UNIVERSAL_TIME_OFFSET ( 2, 0, .AHEAD. ) ;
#143 = VECTOR ( 'NONE', #110, 1000.000000000000000 ) ;
#144 = PRODUCT_DEFINITION_SHAPE ( 'NONE', 'NONE',  #79 ) ;
#145 = EDGE_LOOP ( 'NONE', ( #216, #185 ) ) ;
#146 = CARTESIAN_POINT ( 'NONE',  ( 22.72092151973151900, -8.806915655824317600, 6.980814068433328000 ) ) ;
#147 = PERSON_AND_ORGANIZATION ( #154, #173 ) ;
#148 = CARTESIAN_POINT ( 'NONE',  ( -22.72092151973154400, -8.806915655824314000, 6.980814068433337700 ) ) ;
#149 = VERTEX_POINT ( 'NONE', #136 ) ;
#150 = CARTESIAN_POINT ( 'NONE',  ( 4.540020557876520300, 19.20768831615907900, 9.746363120199601900 ) ) ;
#151 = APPROVAL_PERSON_ORGANIZATION ( #189, #111, #56 ) ;
#152 =( NAMED_UNIT ( * ) SI_UNIT ( $, .STERADIAN. ) SOLID_ANGLE_UNIT ( ) );
#153 = CARTESIAN_POINT ( 'NONE',  ( -1.387778780781445700E-014, 8.806915655824294500, -4.468804185999967000 ) ) ;
#154 = PERSON ( 'UNSPECIFIED', 'UNSPECIFIED', 'UNSPECIFIED', ('UNSPECIFIED'), ('UNSPECIFIED'), ('UNSPECIFIED') ) ;
#155 = CARTESIAN_POINT ( 'NONE',  ( -4.662936703425659800E-015, -8.881784197001250400E-016, 9.533343068539139200 ) ) ;
#156 = LOCAL_TIME ( 17, 6, 17.00000000000000000, #142 ) ;
#157 = ADVANCED_FACE ( 'NONE', ( #26 ), #49, .T. ) ;
#158 = CC_DESIGN_PERSON_AND_ORGANIZATION_ASSIGNMENT ( #147, #209, ( #2 ) ) ;
#159 = DIRECTION ( 'NONE',  ( 1.000000000000000000, 0.0000000000000000000, 0.0000000000000000000 ) ) ;
#160 = DATE_AND_TIME ( #165, #104 ) ;
#161 = ORIENTED_EDGE ( 'NONE', *, *, #58, .F. ) ;
#162 = PRODUCT_DEFINITION_FORMATION_WITH_SPECIFIED_SOURCE ( 'ANY', '', #2, .NOT_KNOWN. ) ;
#163 = ORIENTED_EDGE ( 'NONE', *, *, #44, .T. ) ;
#164 = DIRECTION ( 'NONE',  ( 1.000000000000000000, 0.0000000000000000000, 0.0000000000000000000 ) ) ;
#165 = CALENDAR_DATE ( 2018, 13, 12 ) ;
#166 = CARTESIAN_POINT ( 'NONE',  ( -8.594354721131450600, -19.20768831615909600, 11.78943951588465900 ) ) ;
#167 = DIRECTION ( 'NONE',  ( -0.0000000000000000000, -0.0000000000000000000, -1.000000000000000000 ) ) ;
#168 = CC_DESIGN_PERSON_AND_ORGANIZATION_ASSIGNMENT ( #130, #208, ( #162 ) ) ;
#169 = CARTESIAN_POINT ( 'NONE',  ( -4.662936703425659800E-015, -8.881784197001250400E-016, 9.533343068539139200 ) ) ;
#170 = PERSON_AND_ORGANIZATION ( #154, #173 ) ;
#171 = CARTESIAN_POINT ( 'NONE',  ( 9.132223441427676400, -8.806915655824310500, -4.468804185999974100 ) ) ;
#172 = PERSON_AND_ORGANIZATION_ROLE ( 'classification_officer' ) ;
#173 = ORGANIZATION ( 'UNSPECIFIED', 'UNSPECIFIED', '' ) ;
#174 =( LENGTH_UNIT ( ) NAMED_UNIT ( * ) SI_UNIT ( .MILLI., .METRE. ) );
#175 =( BOUNDED_SURFACE ( )  B_SPLINE_SURFACE ( 3, 3, ( 
 ( #52, #166, #132, #190 ),
 ( #148, #217, #35, #112 ),
 ( #229, #204, #51, #153 ),
 ( #80, #100, #123, #55 ) ),
 .UNSPECIFIED., .F., .F., .F. ) 
 B_SPLINE_SURFACE_WITH_KNOTS ( ( 4, 4 ),
 ( 4, 4 ),
 ( 0.0000000000000000000, 1.000000000000000000 ),
 ( 0.0000000000000000000, 1.000000000000000000 ),
 .UNSPECIFIED. ) 
 GEOMETRIC_REPRESENTATION_ITEM ( )  RATIONAL_B_SPLINE_SURFACE ( (
 ( 1.000000000000000000, 0.9286807348953555200, 0.9286807348953555200, 1.000000000000000000),
 ( 0.7269926296862856400, 0.6751440496005668400, 0.6751440496005668400, 0.7269926296862856400),
 ( 0.7269926296862856400, 0.6751440496005668400, 0.6751440496005668400, 0.7269926296862856400),
 ( 1.000000000000000000, 0.9286807348953555200, 0.9286807348953555200, 1.000000000000000000) ) ) 
 REPRESENTATION_ITEM ( '' )  SURFACE ( )  );
#176 = EDGE_CURVE ( 'NONE', #228, #213, #45, .T. ) ;
#177 = DESIGN_CONTEXT ( 'detailed design', #224, 'design' ) ;
#178 = DATE_AND_TIME ( #40, #78 ) ;
#179 = ORIENTED_EDGE ( 'NONE', *, *, #91, .T. ) ;
#180 = AXIS2_PLACEMENT_3D ( 'NONE', #59, #3, #94 ) ;
#181 = VERTEX_POINT ( 'NONE', #212 ) ;
#182 = SECURITY_CLASSIFICATION ( '', '', #222 ) ;
#183 = COORDINATED_UNIVERSAL_TIME_OFFSET ( 2, 0, .AHEAD. ) ;
#184 = DIRECTION ( 'NONE',  ( 1.000000000000000000, 0.0000000000000000000, 0.0000000000000000000 ) ) ;
#185 = ORIENTED_EDGE ( 'NONE', *, *, #83, .F. ) ;
#186 = CC_DESIGN_APPROVAL ( #88, ( #162 ) ) ;
#187 = CARTESIAN_POINT ( 'NONE',  ( 8.594354721131434600, -19.20768831615908900, 11.78943951588465900 ) ) ;
#188 = AXIS2_PLACEMENT_3D ( 'NONE', #107, #47, #184 ) ;
#189 = PERSON_AND_ORGANIZATION ( #154, #173 ) ;
#190 = CARTESIAN_POINT ( 'NONE',  ( -6.938893903907228400E-015, -19.20768831615909300, 9.746363120199600200 ) ) ;
#191 = MANIFOLD_SOLID_BREP ( 'Imported1', #27 ) ;
#192 = DIRECTION ( 'NONE',  ( 1.000000000000000000, 0.0000000000000000000, -0.0000000000000000000 ) ) ;
#193 = APPROVAL ( #95, 'UNSPECIFIED' ) ;
#194 = APPLICATION_PROTOCOL_DEFINITION ( 'international standard', 'config_control_design', 1994, #224 ) ;
#195 = FACE_OUTER_BOUND ( 'NONE', #145, .T. ) ;
#196 = FACE_OUTER_BOUND ( 'NONE', #125, .T. ) ;
#197 = CARTESIAN_POINT ( 'NONE',  ( -5.329070518200749800E-015, -19.05000000000000400, 9.533343068539139200 ) ) ;
#198 = AXIS2_PLACEMENT_3D ( 'NONE', #31, #134, #92 ) ;
#199 = ORIENTED_EDGE ( 'NONE', *, *, #96, .T. ) ;
#200 = AXIS2_PLACEMENT_3D ( 'NONE', #127, #11, #164 ) ;
#201 = CARTESIAN_POINT ( 'NONE',  ( 19.04999999999999700, -8.881784197001250400E-016, 9.533343068539139200 ) ) ;
#202 = COORDINATED_UNIVERSAL_TIME_OFFSET ( 2, 0, .AHEAD. ) ;
#203 = CARTESIAN_POINT ( 'NONE',  ( -5.329070518200749800E-015, 8.806915655824294500, -4.468804185999970500 ) ) ;
#204 = CARTESIAN_POINT ( 'NONE',  ( -17.28749168593433400, 8.806915655824290900, -0.3591685763256798300 ) ) ;
#205 = CALENDAR_DATE ( 2018, 13, 12 ) ;
#206 = ORIENTED_EDGE ( 'NONE', *, *, #63, .F. ) ;
#207 = CARTESIAN_POINT ( 'NONE',  ( -4.662936703425659800E-015, -8.881784197001250400E-016, 9.533343068539139200 ) ) ;
#208 = PERSON_AND_ORGANIZATION_ROLE ( 'design_supplier' ) ;
#209 = PERSON_AND_ORGANIZATION_ROLE ( 'design_owner' ) ;
#210 = LOCAL_TIME ( 17, 6, 17.00000000000000000, #183 ) ;
#211 = AXIS2_PLACEMENT_3D ( 'NONE', #66, #65, #87 ) ;
#212 = CARTESIAN_POINT ( 'NONE',  ( 19.04999999999999700, -8.881784197001250400E-016, 9.533343068539139200 ) ) ;
#213 = VERTEX_POINT ( 'NONE', #19 ) ;
#214 = APPROVAL_DATE_TIME ( #126, #193 ) ;
#215 = APPROVAL_DATE_TIME ( #73, #111 ) ;
#216 = ORIENTED_EDGE ( 'NONE', *, *, #96, .F. ) ;
#217 = CARTESIAN_POINT ( 'NONE',  ( -17.28749168593433100, -8.806915655824310500, -0.3591685763256833300 ) ) ;
#218 = DIRECTION ( 'NONE',  ( 0.0000000000000000000, -1.000000000000000000, -5.831003280594309600E-016 ) ) ;
#219 = ORIENTED_EDGE ( 'NONE', *, *, #44, .F. ) ;
#220 = DIRECTION ( 'NONE',  ( -0.0000000000000000000, -0.0000000000000000000, -1.000000000000000000 ) ) ;
#221 = DIRECTION ( 'NONE',  ( 1.000000000000000000, 0.0000000000000000000, 0.0000000000000000000 ) ) ;
#222 = SECURITY_CLASSIFICATION_LEVEL ( 'unclassified' ) ;
#223 = ORIENTED_EDGE ( 'NONE', *, *, #63, .T. ) ;
#224 = APPLICATION_CONTEXT ( 'configuration controlled 3d designs of mechanical parts and assemblies' ) ;
#225 = APPROVAL_ROLE ( '' ) ;
#226 = CALENDAR_DATE ( 2018, 13, 12 ) ;
#227 = PLANE ( 'NONE',  #15 ) ;
#228 = VERTEX_POINT ( 'NONE', #197 ) ;
#229 = CARTESIAN_POINT ( 'NONE',  ( -22.72092151973154400, 8.806915655824285600, 6.980814068433344000 ) ) ;
#230 = APPROVAL_PERSON_ORGANIZATION ( #13, #193, #135 ) ;
#231 = ADVANCED_BREP_SHAPE_REPRESENTATION ( '110-1405E UVFS pl-cx 38.1 F50', ( #191, #180 ), #234 ) ;
#232 = EDGE_LOOP ( 'NONE', ( #206, #50, #138 ) ) ;
#233 = CARTESIAN_POINT ( 'NONE',  ( 4.540020557876514900, -19.20768831615908900, 9.746363120199601900 ) ) ;
#234 =( GEOMETRIC_REPRESENTATION_CONTEXT ( 3 ) GLOBAL_UNCERTAINTY_ASSIGNED_CONTEXT ( ( #43 ) ) GLOBAL_UNIT_ASSIGNED_CONTEXT ( ( #174, #38, #152 ) ) REPRESENTATION_CONTEXT ( 'NONE', 'WORKASPACE' ) );
#235 = CARTESIAN_POINT ( 'NONE',  ( 17.28749168593430600, -8.806915655824312200, -0.3591685763256929300 ) ) ;
ENDSEC;
END-ISO-10303-21;
