ISO-10303-21;
HEADER;
FILE_DESCRIPTION (( 'STEP AP203' ),
    '1' );
FILE_NAME ('110-1275E UVFS pl-cx 25.4 F5000.STEP',
    '2018-12-13T14:55:50',
    ( '' ),
    ( '' ),
    'SwSTEP 2.0',
    'SolidWorks 2017',
    '' );
FILE_SCHEMA (( 'CONFIG_CONTROL_DESIGN' ));
ENDSEC;

DATA;
#1 = ADVANCED_BREP_SHAPE_REPRESENTATION ( '110-1275E UVFS pl-cx 25.4 F5000', ( #183, #59 ), #21 ) ;
#2 = CARTESIAN_POINT ( 'NONE',  ( 12.77626136745797700, -4.284174487512937700, 0.02272498273849717100 ) ) ;
#3 = ORIENTED_EDGE ( 'NONE', *, *, #87, .F. ) ;
#4 = APPROVAL_ROLE ( '' ) ;
#5 = CARTESIAN_POINT ( 'NONE',  ( 12.69999999999999900, 2.442490654175340100E-015, 0.03388469499423500000 ) ) ;
#6 = PERSON_AND_ORGANIZATION ( #42, #48 ) ;
#7 = CIRCLE ( 'NONE', #145, 12.69999999999999900 ) ;
#8 = AXIS2_PLACEMENT_3D ( 'NONE', #220, #139, #78 ) ;
#9 = AXIS2_PLACEMENT_3D ( 'NONE', #187, #57, #75 ) ;
#10 = FACE_OUTER_BOUND ( 'NONE', #184, .T. ) ;
#11 = CARTESIAN_POINT ( 'NONE',  ( -12.77601298032622300, -12.85239852735221400, 0.06899483526590088900 ) ) ;
#12 = PERSON_AND_ORGANIZATION ( #42, #48 ) ;
#13 = DATE_AND_TIME ( #17, #69 ) ;
#14 = CARTESIAN_POINT ( 'NONE',  ( 4.996003610813200500E-016, 2.442490654175340100E-015, 0.03388469499423500000 ) ) ;
#15 = CARTESIAN_POINT ( 'NONE',  ( -12.77626136745812800, 4.284174487513027400, 0.02272498273846962000 ) ) ;
#16 = UNCERTAINTY_MEASURE_WITH_UNIT (LENGTH_MEASURE( 1.000000000000000100E-005 ), #177, 'distance_accuracy_value', 'NONE');
#17 = CALENDAR_DATE ( 2018, 13, 12 ) ;
#18 = CARTESIAN_POINT ( 'NONE',  ( 4.258696560937361900, 12.85239852735230100, 0.03470280508199839000 ) ) ;
#19 = APPLICATION_PROTOCOL_DEFINITION ( 'international standard', 'config_control_design', 1994, #119 ) ;
#20 = PRODUCT ( '110-1275E UVFS pl-cx 25.4 F5000', '110-1275E UVFS pl-cx 25.4 F5000', '', ( #137 ) ) ;
#21 =( GEOMETRIC_REPRESENTATION_CONTEXT ( 3 ) GLOBAL_UNCERTAINTY_ASSIGNED_CONTEXT ( ( #16 ) ) GLOBAL_UNIT_ASSIGNED_CONTEXT ( ( #177, #82, #39 ) ) REPRESENTATION_CONTEXT ( 'NONE', 'WORKASPACE' ) );
#22 = APPROVAL_STATUS ( 'not_yet_approved' ) ;
#23 = AXIS2_PLACEMENT_3D ( 'NONE', #63, #37, #116 ) ;
#24 = ORIENTED_EDGE ( 'NONE', *, *, #206, .F. ) ;
#25 = APPROVAL_DATE_TIME ( #129, #123 ) ;
#26 = ORIENTED_EDGE ( 'NONE', *, *, #89, .T. ) ;
#27 = ADVANCED_FACE ( 'NONE', ( #106 ), #99, .T. ) ;
#28 = ADVANCED_FACE ( 'NONE', ( #10 ), #188, .T. ) ;
#29 = ADVANCED_FACE ( 'NONE', ( #169 ), #174, .T. ) ;
#30 = CARTESIAN_POINT ( 'NONE',  ( -4.926614671774132100E-013, 4.284174487513032800, -0.01156771414031096600 ) ) ;
#31 = CC_DESIGN_PERSON_AND_ORGANIZATION_ASSIGNMENT ( #196, #144, ( #79 ) ) ;
#32 = ADVANCED_FACE ( 'NONE', ( #61 ), #51, .T. ) ;
#33 = CARTESIAN_POINT ( 'NONE',  ( 0.0000000000000000000, 26.11199999999999800, 4.000000000000000000 ) ) ;
#34 = CARTESIAN_POINT ( 'NONE',  ( 8.621900619342295100E-014, 12.70000000000617600, 0.03388469499427945000 ) ) ;
#35 = CARTESIAN_POINT ( 'NONE',  ( -4.961309141293668300E-013, 12.85239852735230000, 0.03470280508173288100 ) ) ;
#36 = CARTESIAN_POINT ( 'NONE',  ( -8.517543373472777900, 4.284174487513031000, -0.0001367877299312246000 ) ) ;
#37 = DIRECTION ( 'NONE',  ( 1.000000000000000000, 3.907035426935399900E-016, -5.722465264600830200E-017 ) ) ;
#38 = CARTESIAN_POINT ( 'NONE',  ( 12.77601298032607400, 12.85239852735230500, 0.06899483526592810300 ) ) ;
#39 =( NAMED_UNIT ( * ) SI_UNIT ( $, .STERADIAN. ) SOLID_ANGLE_UNIT ( ) );
#40 = EDGE_CURVE ( 'NONE', #162, #41, #7, .T. ) ;
#41 = VERTEX_POINT ( 'NONE', #158 ) ;
#42 = PERSON ( 'UNSPECIFIED', 'UNSPECIFIED', 'UNSPECIFIED', ('UNSPECIFIED'), ('UNSPECIFIED'), ('UNSPECIFIED') ) ;
#43 = COORDINATED_UNIVERSAL_TIME_OFFSET ( 2, 0, .AHEAD. ) ;
#44 = AXIS2_PLACEMENT_3D ( 'NONE', #33, #128, #70 ) ;
#45 = ORIENTED_EDGE ( 'NONE', *, *, #211, .T. ) ;
#46 = ORIENTED_EDGE ( 'NONE', *, *, #151, .T. ) ;
#47 = EDGE_CURVE ( 'NONE', #66, #130, #135, .T. ) ;
#48 = ORGANIZATION ( 'UNSPECIFIED', 'UNSPECIFIED', '' ) ;
#49 = CC_DESIGN_DATE_AND_TIME_ASSIGNMENT ( #141, #208, ( #234 ) ) ;
#50 = VECTOR ( 'NONE', #210, 1000.000000000000000 ) ;
#51 =( BOUNDED_SURFACE ( )  B_SPLINE_SURFACE ( 3, 3, ( 
 ( #11, #132, #172, #112 ),
 ( #54, #114, #153, #170 ),
 ( #15, #36, #55, #30 ),
 ( #92, #191, #202, #35 ) ),
 .UNSPECIFIED., .F., .F., .F. ) 
 B_SPLINE_SURFACE_WITH_KNOTS ( ( 4, 4 ),
 ( 4, 4 ),
 ( 0.0000000000000000000, 1.000000000000000000 ),
 ( 0.0000000000000000000, 1.000000000000000000 ),
 .UNSPECIFIED. ) 
 GEOMETRIC_REPRESENTATION_ITEM ( )  RATIONAL_B_SPLINE_SURFACE ( (
 ( 1.000000000000000000, 0.9999975985579855300, 0.9999975985579855300, 1.000000000000000000),
 ( 0.9999902793263075700, 0.9999878779076367700, 0.9999878779076367700, 0.9999902793263075700),
 ( 0.9999902793263075700, 0.9999878779076367700, 0.9999878779076367700, 0.9999902793263075700),
 ( 1.000000000000000000, 0.9999975985579855300, 0.9999975985579855300, 1.000000000000000000) ) ) 
 REPRESENTATION_ITEM ( '' )  SURFACE ( )  );
#52 = AXIS2_PLACEMENT_3D ( 'NONE', #64, #81, #143 ) ;
#53 = EDGE_LOOP ( 'NONE', ( #80, #180, #91 ) ) ;
#54 = CARTESIAN_POINT ( 'NONE',  ( -12.77626136745812200, -4.284174487512948400, 0.02272498273846994600 ) ) ;
#55 = CARTESIAN_POINT ( 'NONE',  ( -4.258779357145394700, 4.284174487513031900, -0.01156771414030967900 ) ) ;
#56 = CIRCLE ( 'NONE', #52, 12.69999999999999900 ) ;
#57 = DIRECTION ( 'NONE',  ( -0.0000000000000000000, -0.0000000000000000000, -1.000000000000000000 ) ) ;
#58 = CARTESIAN_POINT ( 'NONE',  ( 12.69999999999999900, 2.442490654175340100E-015, 4.000000000000000000 ) ) ;
#59 = AXIS2_PLACEMENT_3D ( 'NONE', #121, #103, #98 ) ;
#60 = CARTESIAN_POINT ( 'NONE',  ( 12.77601298032608300, -12.85239852735220400, 0.06899483526592810300 ) ) ;
#61 = FACE_OUTER_BOUND ( 'NONE', #53, .T. ) ;
#62 = APPROVAL_STATUS ( 'not_yet_approved' ) ;
#63 = CARTESIAN_POINT ( 'NONE',  ( 2.273736754432320100E-013, 0.0000000000000000000, 2380.000000000000000 ) ) ;
#64 = CARTESIAN_POINT ( 'NONE',  ( 4.996003610813200500E-016, 2.442490654175340100E-015, 0.03388469499423500000 ) ) ;
#65 = CIRCLE ( 'NONE', #138, 12.69999999999999900 ) ;
#66 = VERTEX_POINT ( 'NONE', #58 ) ;
#67 = AXIS2_PLACEMENT_3D ( 'NONE', #96, #110, #230 ) ;
#68 = CC_DESIGN_APPROVAL ( #189, ( #181 ) ) ;
#69 = LOCAL_TIME ( 16, 55, 50.00000000000000000, #43 ) ;
#70 = DIRECTION ( 'NONE',  ( 1.000000000000000000, 0.0000000000000000000, -0.0000000000000000000 ) ) ;
#71 = LOCAL_TIME ( 16, 55, 50.00000000000000000, #221 ) ;
#72 = ORIENTED_EDGE ( 'NONE', *, *, #40, .F. ) ;
#73 = DIRECTION ( 'NONE',  ( 1.000000000000000000, 0.0000000000000000000, 0.0000000000000000000 ) ) ;
#74 = DIRECTION ( 'NONE',  ( 0.0000000000000000000, 0.0000000000000000000, 1.000000000000000000 ) ) ;
#75 = DIRECTION ( 'NONE',  ( 1.000000000000000000, 0.0000000000000000000, 0.0000000000000000000 ) ) ;
#76 = CARTESIAN_POINT ( 'NONE',  ( 9.620246563844459400E-014, -12.85239852735220900, 0.03470280508199863300 ) ) ;
#77 = APPROVAL_PERSON_ORGANIZATION ( #126, #189, #176 ) ;
#78 = DIRECTION ( 'NONE',  ( 1.000000000000000000, 0.0000000000000000000, 0.0000000000000000000 ) ) ;
#79 = PRODUCT_DEFINITION_FORMATION_WITH_SPECIFIED_SOURCE ( 'ANY', '', #20, .NOT_KNOWN. ) ;
#80 = ORIENTED_EDGE ( 'NONE', *, *, #218, .F. ) ;
#81 = DIRECTION ( 'NONE',  ( -0.0000000000000000000, -0.0000000000000000000, -1.000000000000000000 ) ) ;
#82 =( NAMED_UNIT ( * ) PLANE_ANGLE_UNIT ( ) SI_UNIT ( $, .RADIAN. ) );
#83 = LINE ( 'NONE', #131, #155 ) ;
#84 = CC_DESIGN_PERSON_AND_ORGANIZATION_ASSIGNMENT ( #200, #140, ( #234 ) ) ;
#85 = APPROVAL_PERSON_ORGANIZATION ( #12, #123, #4 ) ;
#86 = DESIGN_CONTEXT ( 'detailed design', #164, 'design' ) ;
#87 = EDGE_CURVE ( 'NONE', #136, #215, #65, .T. ) ;
#88 = PERSON_AND_ORGANIZATION ( #42, #48 ) ;
#89 = EDGE_CURVE ( 'NONE', #130, #66, #199, .T. ) ;
#90 = CALENDAR_DATE ( 2018, 13, 12 ) ;
#91 = ORIENTED_EDGE ( 'NONE', *, *, #149, .T. ) ;
#92 = CARTESIAN_POINT ( 'NONE',  ( -12.77601298032623200, 12.85239852735229400, 0.06899483526590088900 ) ) ;
#93 = DIRECTION ( 'NONE',  ( 1.000000000000000000, 0.0000000000000000000, 0.0000000000000000000 ) ) ;
#94 = CARTESIAN_POINT ( 'NONE',  ( 8.615951036495307700E-014, 12.85239852735230000, 0.03470280508199863300 ) ) ;
#95 = CARTESIAN_POINT ( 'NONE',  ( 12.77626136745797300, 4.284174487513038100, 0.02272498273849684500 ) ) ;
#96 = CARTESIAN_POINT ( 'NONE',  ( 4.996003610813200500E-016, 2.442490654175340100E-015, 4.000000000000000000 ) ) ;
#97 = CC_DESIGN_PERSON_AND_ORGANIZATION_ASSIGNMENT ( #88, #179, ( #181 ) ) ;
#98 = DIRECTION ( 'NONE',  ( 1.000000000000000000, 0.0000000000000000000, 0.0000000000000000000 ) ) ;
#99 =( BOUNDED_SURFACE ( )  B_SPLINE_SURFACE ( 3, 3, ( 
 ( #76, #173, #190, #60 ),
 ( #133, #216, #160, #2 ),
 ( #203, #201, #157, #95 ),
 ( #94, #18, #115, #38 ) ),
 .UNSPECIFIED., .F., .F., .F. ) 
 B_SPLINE_SURFACE_WITH_KNOTS ( ( 4, 4 ),
 ( 4, 4 ),
 ( 0.0000000000000000000, 1.000000000000000000 ),
 ( 0.0000000000000000000, 1.000000000000000000 ),
 .UNSPECIFIED. ) 
 GEOMETRIC_REPRESENTATION_ITEM ( )  RATIONAL_B_SPLINE_SURFACE ( (
 ( 1.000000000000000000, 0.9999975985579855300, 0.9999975985579855300, 1.000000000000000000),
 ( 0.9999902793263075700, 0.9999878779076367700, 0.9999878779076367700, 0.9999902793263075700),
 ( 0.9999902793263075700, 0.9999878779076367700, 0.9999878779076367700, 0.9999902793263075700),
 ( 1.000000000000000000, 0.9999975985579855300, 0.9999975985579855300, 1.000000000000000000) ) ) 
 REPRESENTATION_ITEM ( '' )  SURFACE ( )  );
#100 = APPROVAL_STATUS ( 'not_yet_approved' ) ;
#101 = SHAPE_DEFINITION_REPRESENTATION ( #178, #1 ) ;
#102 = ORIENTED_EDGE ( 'NONE', *, *, #47, .F. ) ;
#103 = DIRECTION ( 'NONE',  ( 0.0000000000000000000, 0.0000000000000000000, 1.000000000000000000 ) ) ;
#104 = LINE ( 'NONE', #219, #50 ) ;
#105 = FACE_OUTER_BOUND ( 'NONE', #175, .T. ) ;
#106 = FACE_OUTER_BOUND ( 'NONE', #142, .T. ) ;
#107 = APPROVAL ( #62, 'UNSPECIFIED' ) ;
#108 = LOCAL_TIME ( 16, 55, 50.00000000000000000, #165 ) ;
#109 = ORIENTED_EDGE ( 'NONE', *, *, #211, .F. ) ;
#110 = DIRECTION ( 'NONE',  ( -0.0000000000000000000, -0.0000000000000000000, -1.000000000000000000 ) ) ;
#111 = CARTESIAN_POINT ( 'NONE',  ( 9.614287617784370000E-014, -12.70000000000617400, 0.03388469499427945000 ) ) ;
#112 = CARTESIAN_POINT ( 'NONE',  ( -4.857225732735059900E-013, -12.85239852735220900, 0.03470280508173288100 ) ) ;
#113 = PERSON_AND_ORGANIZATION ( #42, #48 ) ;
#114 = CARTESIAN_POINT ( 'NONE',  ( -8.517543373472772600, -4.284174487512947500, -0.0001367877299308959500 ) ) ;
#115 = CARTESIAN_POINT ( 'NONE',  ( 8.517377781355367700, 12.85239852735230300, 0.04613350926006926100 ) ) ;
#116 = DIRECTION ( 'NONE',  ( 3.907035426935399000E-016, -1.000000000000000000, -7.463684199160716300E-016 ) ) ;
#117 = PRODUCT_RELATED_PRODUCT_CATEGORY ( 'detail', '', ( #20 ) ) ;
#118 = APPROVAL_PERSON_ORGANIZATION ( #6, #107, #193 ) ;
#119 = APPLICATION_CONTEXT ( 'configuration controlled 3d designs of mechanical parts and assemblies' ) ;
#120 = SECURITY_CLASSIFICATION_LEVEL ( 'unclassified' ) ;
#121 = CARTESIAN_POINT ( 'NONE',  ( 0.0000000000000000000, 0.0000000000000000000, 0.0000000000000000000 ) ) ;
#122 = DATE_AND_TIME ( #148, #205 ) ;
#123 = APPROVAL ( #100, 'UNSPECIFIED' ) ;
#124 = CC_DESIGN_APPROVAL ( #123, ( #234 ) ) ;
#125 = ORIENTED_EDGE ( 'NONE', *, *, #89, .F. ) ;
#126 = PERSON_AND_ORGANIZATION ( #42, #48 ) ;
#127 = ADVANCED_FACE ( 'NONE', ( #105 ), #204, .T. ) ;
#128 = DIRECTION ( 'NONE',  ( 0.0000000000000000000, 0.0000000000000000000, 1.000000000000000000 ) ) ;
#129 = DATE_AND_TIME ( #90, #71 ) ;
#130 = VERTEX_POINT ( 'NONE', #154 ) ;
#131 = CARTESIAN_POINT ( 'NONE',  ( -12.69999999999999900, 3.997792089092478900E-015, 0.03388469499423500000 ) ) ;
#132 = CARTESIAN_POINT ( 'NONE',  ( -8.517377781355600400, -12.85239852735221400, 0.04613350926004142200 ) ) ;
#133 = CARTESIAN_POINT ( 'NONE',  ( 9.285218233709721700E-014, -4.284174487512943100, -0.01156771414004489700 ) ) ;
#134 = DIRECTION ( 'NONE',  ( 1.000000000000000000, 1.776356839400250500E-015, 0.0000000000000000000 ) ) ;
#135 = CIRCLE ( 'NONE', #9, 12.69999999999999900 ) ;
#136 = VERTEX_POINT ( 'NONE', #34 ) ;
#137 = MECHANICAL_CONTEXT ( 'NONE', #119, 'mechanical' ) ;
#138 = AXIS2_PLACEMENT_3D ( 'NONE', #152, #217, #134 ) ;
#139 = DIRECTION ( 'NONE',  ( -0.0000000000000000000, -0.0000000000000000000, -1.000000000000000000 ) ) ;
#140 = PERSON_AND_ORGANIZATION_ROLE ( 'classification_officer' ) ;
#141 = DATE_AND_TIME ( #227, #108 ) ;
#142 = EDGE_LOOP ( 'NONE', ( #225, #147, #213 ) ) ;
#143 = DIRECTION ( 'NONE',  ( 1.000000000000000000, -8.881784197001252300E-016, 0.0000000000000000000 ) ) ;
#144 = PERSON_AND_ORGANIZATION_ROLE ( 'creator' ) ;
#145 = AXIS2_PLACEMENT_3D ( 'NONE', #232, #186, #233 ) ;
#146 = PERSON_AND_ORGANIZATION ( #42, #48 ) ;
#147 = ORIENTED_EDGE ( 'NONE', *, *, #218, .T. ) ;
#148 = CALENDAR_DATE ( 2018, 13, 12 ) ;
#149 = EDGE_CURVE ( 'NONE', #41, #136, #56, .T. ) ;
#150 = DATE_AND_TIME ( #235, #212 ) ;
#151 = EDGE_CURVE ( 'NONE', #41, #130, #83, .T. ) ;
#152 = CARTESIAN_POINT ( 'NONE',  ( 4.996003610813200500E-016, 2.442490654175340100E-015, 0.03388469499423500000 ) ) ;
#153 = CARTESIAN_POINT ( 'NONE',  ( -4.258779357145389400, -4.284174487512945700, -0.01156771414030935600 ) ) ;
#154 = CARTESIAN_POINT ( 'NONE',  ( -12.69999999999999900, 3.997792089092478900E-015, 4.000000000000000000 ) ) ;
#155 = VECTOR ( 'NONE', #171, 1000.000000000000000 ) ;
#156 = CARTESIAN_POINT ( 'NONE',  ( 4.996003610813200500E-016, 2.442490654175340100E-015, 0.03388469499423500000 ) ) ;
#157 = CARTESIAN_POINT ( 'NONE',  ( 8.517543373472541600, 4.284174487513037200, -0.0001367877299033673800 ) ) ;
#158 = CARTESIAN_POINT ( 'NONE',  ( -12.69999999999999900, 3.997792089092478900E-015, 0.03388469499423500000 ) ) ;
#159 = APPLICATION_PROTOCOL_DEFINITION ( 'international standard', 'config_control_design', 1994, #164 ) ;
#160 = CARTESIAN_POINT ( 'NONE',  ( 8.517543373472545200, -4.284174487512940400, -0.0001367877299030421200 ) ) ;
#161 = PERSON_AND_ORGANIZATION_ROLE ( 'design_owner' ) ;
#162 = VERTEX_POINT ( 'NONE', #111 ) ;
#163 = CC_DESIGN_APPROVAL ( #107, ( #79 ) ) ;
#164 = APPLICATION_CONTEXT ( 'configuration controlled 3d designs of mechanical parts and assemblies' ) ;
#165 = COORDINATED_UNIVERSAL_TIME_OFFSET ( 2, 0, .AHEAD. ) ;
#166 = APPROVAL_DATE_TIME ( #150, #189 ) ;
#167 = ORIENTED_EDGE ( 'NONE', *, *, #47, .T. ) ;
#168 = COORDINATED_UNIVERSAL_TIME_OFFSET ( 2, 0, .AHEAD. ) ;
#169 = FACE_OUTER_BOUND ( 'NONE', #222, .T. ) ;
#170 = CARTESIAN_POINT ( 'NONE',  ( -4.874572967494827900E-013, -4.284174487512943100, -0.01156771414031064100 ) ) ;
#171 = DIRECTION ( 'NONE',  ( 0.0000000000000000000, 0.0000000000000000000, 1.000000000000000000 ) ) ;
#172 = CARTESIAN_POINT ( 'NONE',  ( -4.258696560937679000, -12.85239852735221300, 0.03470280508173417100 ) ) ;
#173 = CARTESIAN_POINT ( 'NONE',  ( 4.258696560937372600, -12.85239852735220900, 0.03470280508199839000 ) ) ;
#174 = CYLINDRICAL_SURFACE ( 'NONE', #214, 12.69999999999999900 ) ;
#175 = EDGE_LOOP ( 'NONE', ( #102, #125 ) ) ;
#176 = APPROVAL_ROLE ( '' ) ;
#177 =( LENGTH_UNIT ( ) NAMED_UNIT ( * ) SI_UNIT ( .MILLI., .METRE. ) );
#178 = PRODUCT_DEFINITION_SHAPE ( 'NONE', 'NONE',  #181 ) ;
#179 = PERSON_AND_ORGANIZATION_ROLE ( 'creator' ) ;
#180 = ORIENTED_EDGE ( 'NONE', *, *, #40, .T. ) ;
#181 = PRODUCT_DEFINITION ( 'UNKNOWN', '', #79, #86 ) ;
#182 = CIRCLE ( 'NONE', #8, 12.69999999999999900 ) ;
#183 = MANIFOLD_SOLID_BREP ( 'Imported1', #228 ) ;
#184 = EDGE_LOOP ( 'NONE', ( #226, #46, #26, #109, #3 ) ) ;
#185 = DIRECTION ( 'NONE',  ( 0.0000000000000000000, 0.0000000000000000000, 1.000000000000000000 ) ) ;
#186 = DIRECTION ( 'NONE',  ( -0.0000000000000000000, -0.0000000000000000000, -1.000000000000000000 ) ) ;
#187 = CARTESIAN_POINT ( 'NONE',  ( 4.996003610813200500E-016, 2.442490654175340100E-015, 4.000000000000000000 ) ) ;
#188 = CYLINDRICAL_SURFACE ( 'NONE', #195, 12.69999999999999900 ) ;
#189 = APPROVAL ( #22, 'UNSPECIFIED' ) ;
#190 = CARTESIAN_POINT ( 'NONE',  ( 8.517377781355378400, -12.85239852735220700, 0.04613350926006926100 ) ) ;
#191 = CARTESIAN_POINT ( 'NONE',  ( -8.517377781355611100, 12.85239852735229800, 0.04613350926004142200 ) ) ;
#192 = PERSON_AND_ORGANIZATION_ROLE ( 'design_supplier' ) ;
#193 = APPROVAL_ROLE ( '' ) ;
#194 = CIRCLE ( 'NONE', #23, 2380.000000000000000 ) ;
#195 = AXIS2_PLACEMENT_3D ( 'NONE', #14, #74, #73 ) ;
#196 = PERSON_AND_ORGANIZATION ( #42, #48 ) ;
#197 = CC_DESIGN_DATE_AND_TIME_ASSIGNMENT ( #13, #223, ( #181 ) ) ;
#198 = CC_DESIGN_SECURITY_CLASSIFICATION ( #234, ( #79 ) ) ;
#199 = CIRCLE ( 'NONE', #67, 12.69999999999999900 ) ;
#200 = PERSON_AND_ORGANIZATION ( #42, #48 ) ;
#201 = CARTESIAN_POINT ( 'NONE',  ( 4.258779357145074100, 4.284174487513035400, -0.01156771414004546500 ) ) ;
#202 = CARTESIAN_POINT ( 'NONE',  ( -4.258696560937689700, 12.85239852735229800, 0.03470280508173417100 ) ) ;
#203 = CARTESIAN_POINT ( 'NONE',  ( 8.950449803752000000E-014, 4.284174487513032800, -0.01156771414004522300 ) ) ;
#204 = PLANE ( 'NONE',  #44 ) ;
#205 = LOCAL_TIME ( 16, 55, 50.00000000000000000, #168 ) ;
#206 = EDGE_CURVE ( 'NONE', #215, #162, #182, .T. ) ;
#207 = ORIENTED_EDGE ( 'NONE', *, *, #151, .F. ) ;
#208 = DATE_TIME_ROLE ( 'classification_date' ) ;
#209 = APPROVAL_DATE_TIME ( #122, #107 ) ;
#210 = DIRECTION ( 'NONE',  ( 0.0000000000000000000, 0.0000000000000000000, 1.000000000000000000 ) ) ;
#211 = EDGE_CURVE ( 'NONE', #215, #66, #104, .T. ) ;
#212 = LOCAL_TIME ( 16, 55, 50.00000000000000000, #229 ) ;
#213 = ORIENTED_EDGE ( 'NONE', *, *, #87, .T. ) ;
#214 = AXIS2_PLACEMENT_3D ( 'NONE', #156, #185, #93 ) ;
#215 = VERTEX_POINT ( 'NONE', #5 ) ;
#216 = CARTESIAN_POINT ( 'NONE',  ( 4.258779357145077600, -4.284174487512942200, -0.01156771414004514000 ) ) ;
#217 = DIRECTION ( 'NONE',  ( -0.0000000000000000000, -0.0000000000000000000, -1.000000000000000000 ) ) ;
#218 = EDGE_CURVE ( 'NONE', #162, #136, #194, .T. ) ;
#219 = CARTESIAN_POINT ( 'NONE',  ( 12.69999999999999900, 2.442490654175340100E-015, 0.03388469499423500000 ) ) ;
#220 = CARTESIAN_POINT ( 'NONE',  ( 4.996003610813200500E-016, 2.442490654175340100E-015, 0.03388469499423500000 ) ) ;
#221 = COORDINATED_UNIVERSAL_TIME_OFFSET ( 2, 0, .AHEAD. ) ;
#222 = EDGE_LOOP ( 'NONE', ( #207, #72, #24, #45, #167 ) ) ;
#223 = DATE_TIME_ROLE ( 'creation_date' ) ;
#224 = CC_DESIGN_PERSON_AND_ORGANIZATION_ASSIGNMENT ( #113, #192, ( #79 ) ) ;
#225 = ORIENTED_EDGE ( 'NONE', *, *, #206, .T. ) ;
#226 = ORIENTED_EDGE ( 'NONE', *, *, #149, .F. ) ;
#227 = CALENDAR_DATE ( 2018, 13, 12 ) ;
#228 = CLOSED_SHELL ( 'NONE', ( #27, #28, #32, #29, #127 ) ) ;
#229 = COORDINATED_UNIVERSAL_TIME_OFFSET ( 2, 0, .AHEAD. ) ;
#230 = DIRECTION ( 'NONE',  ( 1.000000000000000000, 0.0000000000000000000, 0.0000000000000000000 ) ) ;
#231 = CC_DESIGN_PERSON_AND_ORGANIZATION_ASSIGNMENT ( #146, #161, ( #20 ) ) ;
#232 = CARTESIAN_POINT ( 'NONE',  ( 4.996003610813200500E-016, 2.442490654175340100E-015, 0.03388469499423500000 ) ) ;
#233 = DIRECTION ( 'NONE',  ( 1.000000000000000000, 0.0000000000000000000, 0.0000000000000000000 ) ) ;
#234 = SECURITY_CLASSIFICATION ( '', '', #120 ) ;
#235 = CALENDAR_DATE ( 2018, 13, 12 ) ;
ENDSEC;
END-ISO-10303-21;
