ISO-10303-21;
HEADER;
FILE_DESCRIPTION (( 'STEP AP203' ),
    '1' );
FILE_NAME ('110-1265E UVFS pl-cx 25.4 F2000.STEP',
    '2018-12-13T14:56:24',
    ( '' ),
    ( '' ),
    'SwSTEP 2.0',
    'SolidWorks 2017',
    '' );
FILE_SCHEMA (( 'CONFIG_CONTROL_DESIGN' ));
ENDSEC;

DATA;
#1 = FACE_OUTER_BOUND ( 'NONE', #170, .T. ) ;
#2 = AXIS2_PLACEMENT_3D ( 'NONE', #209, #81, #100 ) ;
#3 = CALENDAR_DATE ( 2018, 13, 12 ) ;
#4 = ORIENTED_EDGE ( 'NONE', *, *, #152, .T. ) ;
#5 = EDGE_CURVE ( 'NONE', #109, #116, #162, .T. ) ;
#6 = MANIFOLD_SOLID_BREP ( 'Imported1', #83 ) ;
#7 = CARTESIAN_POINT ( 'NONE',  ( 12.69999999999999900, 2.442490654175340100E-015, 4.000000000000000000 ) ) ;
#8 = CYLINDRICAL_SURFACE ( 'NONE', #174, 12.69999999999999900 ) ;
#9 = CARTESIAN_POINT ( 'NONE',  ( -12.77503132948538500, 12.85239079729602800, 0.1724688163893262100 ) ) ;
#10 = EDGE_CURVE ( 'NONE', #109, #53, #138, .T. ) ;
#11 = CIRCLE ( 'NONE', #128, 12.69999999999999900 ) ;
#12 = APPLICATION_PROTOCOL_DEFINITION ( 'international standard', 'config_control_design', 1994, #45 ) ;
#13 =( NAMED_UNIT ( * ) SI_UNIT ( $, .STERADIAN. ) SOLID_ANGLE_UNIT ( ) );
#14 = VERTEX_POINT ( 'NONE', #186 ) ;
#15 = CARTESIAN_POINT ( 'NONE',  ( 0.0000000000000000000, 0.0000000000000000000, 0.0000000000000000000 ) ) ;
#16 = SECURITY_CLASSIFICATION ( '', '', #104 ) ;
#17 = EDGE_LOOP ( 'NONE', ( #176, #220 ) ) ;
#18 = CC_DESIGN_PERSON_AND_ORGANIZATION_ASSIGNMENT ( #110, #48, ( #16 ) ) ;
#19 = PRODUCT_DEFINITION_SHAPE ( 'NONE', 'NONE',  #32 ) ;
#20 = CARTESIAN_POINT ( 'NONE',  ( 4.259020948309790300, 4.284390515499847400, -0.02891879527942527500 ) ) ;
#21 = APPROVAL ( #137, 'UNSPECIFIED' ) ;
#22 = CALENDAR_DATE ( 2018, 13, 12 ) ;
#23 = CARTESIAN_POINT ( 'NONE',  ( -7.858297346174936100E-013, -12.85239079729598900, 0.08675111593462341000 ) ) ;
#24 = PERSON_AND_ORGANIZATION ( #179, #46 ) ;
#25 = CC_DESIGN_PERSON_AND_ORGANIZATION_ASSIGNMENT ( #108, #173, ( #32 ) ) ;
#26 = DIRECTION ( 'NONE',  ( 1.000000000000000000, 1.776356839400250500E-015, 0.0000000000000000000 ) ) ;
#27 = DIRECTION ( 'NONE',  ( -0.0000000000000000000, -0.0000000000000000000, -1.000000000000000000 ) ) ;
#28 = DIRECTION ( 'NONE',  ( 1.000000000000000000, -8.881784197001252300E-016, 0.0000000000000000000 ) ) ;
#29 = COORDINATED_UNIVERSAL_TIME_OFFSET ( 2, 0, .AHEAD. ) ;
#30 = VECTOR ( 'NONE', #43, 1000.000000000000000 ) ;
#31 = PERSON_AND_ORGANIZATION_ROLE ( 'design_owner' ) ;
#32 = PRODUCT_DEFINITION ( 'UNKNOWN', '', #198, #202 ) ;
#33 = LOCAL_TIME ( 16, 56, 24.00000000000000000, #199 ) ;
#34 = PRODUCT_RELATED_PRODUCT_CATEGORY ( 'detail', '', ( #160 ) ) ;
#35 = CARTESIAN_POINT ( 'NONE',  ( 4.259020948309787600, -4.284390515499814500, -0.02891879527942802600 ) ) ;
#36 = CARTESIAN_POINT ( 'NONE',  ( 4.258503538781282800, -12.85239079729599300, 0.08675111593458932600 ) ) ;
#37 = FACE_OUTER_BOUND ( 'NONE', #130, .T. ) ;
#38 = CARTESIAN_POINT ( 'NONE',  ( -12.69999999999999900, 3.997792089092478900E-015, 4.000000000000000000 ) ) ;
#39 = CARTESIAN_POINT ( 'NONE',  ( -5.463962236227763100E-013, 12.69999999999751900, 0.08470600520285115300 ) ) ;
#40 = AXIS2_PLACEMENT_3D ( 'NONE', #151, #135, #42 ) ;
#41 = LINE ( 'NONE', #114, #208 ) ;
#42 = DIRECTION ( 'NONE',  ( 1.000000000000000000, 0.0000000000000000000, 0.0000000000000000000 ) ) ;
#43 = DIRECTION ( 'NONE',  ( 0.0000000000000000000, 0.0000000000000000000, 1.000000000000000000 ) ) ;
#44 = ADVANCED_FACE ( 'NONE', ( #37 ), #80, .T. ) ;
#45 = APPLICATION_CONTEXT ( 'configuration controlled 3d designs of mechanical parts and assemblies' ) ;
#46 = ORGANIZATION ( 'UNSPECIFIED', 'UNSPECIFIED', '' ) ;
#47 = APPLICATION_CONTEXT ( 'configuration controlled 3d designs of mechanical parts and assemblies' ) ;
#48 = PERSON_AND_ORGANIZATION_ROLE ( 'classification_officer' ) ;
#49 = CC_DESIGN_DATE_AND_TIME_ASSIGNMENT ( #140, #102, ( #32 ) ) ;
#50 = DIRECTION ( 'NONE',  ( 1.000000000000000000, 0.0000000000000000000, 0.0000000000000000000 ) ) ;
#51 = CIRCLE ( 'NONE', #213, 12.69999999999999900 ) ;
#52 = CALENDAR_DATE ( 2018, 13, 12 ) ;
#53 = VERTEX_POINT ( 'NONE', #205 ) ;
#54 = CALENDAR_DATE ( 2018, 13, 12 ) ;
#55 = DIRECTION ( 'NONE',  ( 1.000000000000000000, -2.441640666974649900E-016, -4.577765423489080400E-016 ) ) ;
#56 = DIRECTION ( 'NONE',  ( -0.0000000000000000000, -0.0000000000000000000, -1.000000000000000000 ) ) ;
#57 = CARTESIAN_POINT ( 'NONE',  ( -1.136868377216160000E-013, 1.705302565824239900E-013, 952.1000000000000200 ) ) ;
#58 = CC_DESIGN_PERSON_AND_ORGANIZATION_ASSIGNMENT ( #178, #191, ( #198 ) ) ;
#59 = COORDINATED_UNIVERSAL_TIME_OFFSET ( 2, 0, .AHEAD. ) ;
#60 = DIRECTION ( 'NONE',  ( -0.0000000000000000000, -0.0000000000000000000, -1.000000000000000000 ) ) ;
#61 = PLANE ( 'NONE',  #161 ) ;
#62 = LOCAL_TIME ( 16, 56, 24.00000000000000000, #29 ) ;
#63 = APPROVAL_STATUS ( 'not_yet_approved' ) ;
#64 = CC_DESIGN_PERSON_AND_ORGANIZATION_ASSIGNMENT ( #24, #86, ( #198 ) ) ;
#65 =( LENGTH_UNIT ( ) NAMED_UNIT ( * ) SI_UNIT ( .MILLI., .METRE. ) );
#66 = APPROVAL_DATE_TIME ( #214, #158 ) ;
#67 = APPLICATION_PROTOCOL_DEFINITION ( 'international standard', 'config_control_design', 1994, #47 ) ;
#68 = CC_DESIGN_APPROVAL ( #139, ( #198 ) ) ;
#69 = LOCAL_TIME ( 16, 56, 24.00000000000000000, #70 ) ;
#70 = COORDINATED_UNIVERSAL_TIME_OFFSET ( 2, 0, .AHEAD. ) ;
#71 = LOCAL_TIME ( 16, 56, 24.00000000000000000, #103 ) ;
#72 = EDGE_CURVE ( 'NONE', #148, #77, #51, .T. ) ;
#73 = DIRECTION ( 'NONE',  ( -2.441640666974649900E-016, -1.000000000000000000, -2.332156337832489300E-016 ) ) ;
#74 = APPROVAL_PERSON_ORGANIZATION ( #184, #139, #84 ) ;
#75 = CARTESIAN_POINT ( 'NONE',  ( 12.77503132948519100, -12.85239079729599300, 0.1724688163892750800 ) ) ;
#76 = CARTESIAN_POINT ( 'NONE',  ( -5.463580790622610700E-013, 12.85239079729602500, 0.08675111593459128300 ) ) ;
#77 = VERTEX_POINT ( 'NONE', #38 ) ;
#78 = CARTESIAN_POINT ( 'NONE',  ( -4.259020948310739700, 4.284390515499849200, -0.02891879527938820100 ) ) ;
#79 = CARTESIAN_POINT ( 'NONE',  ( 4.996003610813200500E-016, 2.442490654175340100E-015, 0.08470600520287420400 ) ) ;
#80 =( BOUNDED_SURFACE ( )  B_SPLINE_SURFACE ( 3, 3, ( 
 ( #223, #36, #221, #75 ),
 ( #113, #35, #165, #93 ),
 ( #204, #20, #144, #183 ),
 ( #76, #94, #222, #111 ) ),
 .UNSPECIFIED., .F., .F., .F. ) 
 B_SPLINE_SURFACE_WITH_KNOTS ( ( 4, 4 ),
 ( 4, 4 ),
 ( 0.0000000000000000000, 1.000000000000000000 ),
 ( 0.0000000000000000000, 1.000000000000000000 ),
 .UNSPECIFIED. ) 
 GEOMETRIC_REPRESENTATION_ITEM ( )  RATIONAL_B_SPLINE_SURFACE ( (
 ( 1.000000000000000000, 0.9999849934397250200, 0.9999849934397250200, 1.000000000000000000),
 ( 0.9999392562994541300, 0.9999242506507332000, 0.9999242506507332000, 0.9999392562994541300),
 ( 0.9999392562994541300, 0.9999242506507332000, 0.9999242506507332000, 0.9999392562994541300),
 ( 1.000000000000000000, 0.9999849934397250200, 0.9999849934397250200, 1.000000000000000000) ) ) 
 REPRESENTATION_ITEM ( '' )  SURFACE ( )  );
#81 = DIRECTION ( 'NONE',  ( -0.0000000000000000000, -0.0000000000000000000, -1.000000000000000000 ) ) ;
#82 = CARTESIAN_POINT ( 'NONE',  ( -12.77503132948539200, -12.85239079729598500, 0.1724688163893262100 ) ) ;
#83 = CLOSED_SHELL ( 'NONE', ( #44, #233, #218, #85, #172 ) ) ;
#84 = APPROVAL_ROLE ( '' ) ;
#85 = ADVANCED_FACE ( 'NONE', ( #1 ), #145, .T. ) ;
#86 = PERSON_AND_ORGANIZATION_ROLE ( 'design_supplier' ) ;
#87 = AXIS2_PLACEMENT_3D ( 'NONE', #15, #122, #50 ) ;
#88 = EDGE_CURVE ( 'NONE', #14, #148, #41, .T. ) ;
#89 = AXIS2_PLACEMENT_3D ( 'NONE', #203, #56, #143 ) ;
#90 = DATE_AND_TIME ( #167, #33 ) ;
#91 = ORIENTED_EDGE ( 'NONE', *, *, #200, .T. ) ;
#92 = ORIENTED_EDGE ( 'NONE', *, *, #200, .F. ) ;
#93 = CARTESIAN_POINT ( 'NONE',  ( 12.77658349983720300, -4.284390515499817200, 0.05680931990300725600 ) ) ;
#94 = CARTESIAN_POINT ( 'NONE',  ( 4.258503538781289100, 12.85239079729602300, 0.08675111593458932600 ) ) ;
#95 = ORIENTED_EDGE ( 'NONE', *, *, #142, .T. ) ;
#96 = CARTESIAN_POINT ( 'NONE',  ( -4.258503538782234100, 12.85239079729602600, 0.08675111593462640800 ) ) ;
#97 = CARTESIAN_POINT ( 'NONE',  ( -7.806255641895632900E-013, 4.284390515499848300, -0.02891879527939119500 ) ) ;
#98 = SHAPE_DEFINITION_REPRESENTATION ( #19, #155 ) ;
#99 = CARTESIAN_POINT ( 'NONE',  ( -4.258503538782241200, -12.85239079729598900, 0.08675111593462640800 ) ) ;
#100 = DIRECTION ( 'NONE',  ( 1.000000000000000000, 0.0000000000000000000, 0.0000000000000000000 ) ) ;
#101 = DIRECTION ( 'NONE',  ( 1.000000000000000000, 0.0000000000000000000, -0.0000000000000000000 ) ) ;
#102 = DATE_TIME_ROLE ( 'creation_date' ) ;
#103 = COORDINATED_UNIVERSAL_TIME_OFFSET ( 2, 0, .AHEAD. ) ;
#104 = SECURITY_CLASSIFICATION_LEVEL ( 'unclassified' ) ;
#105 = EDGE_LOOP ( 'NONE', ( #133, #163, #126 ) ) ;
#106 = PERSON_AND_ORGANIZATION ( #179, #46 ) ;
#107 = CC_DESIGN_PERSON_AND_ORGANIZATION_ASSIGNMENT ( #123, #31, ( #160 ) ) ;
#108 = PERSON_AND_ORGANIZATION ( #179, #46 ) ;
#109 = VERTEX_POINT ( 'NONE', #134 ) ;
#110 = PERSON_AND_ORGANIZATION ( #179, #46 ) ;
#111 = CARTESIAN_POINT ( 'NONE',  ( 12.77503132948519700, 12.85239079729602100, 0.1724688163892750800 ) ) ;
#112 =( GEOMETRIC_REPRESENTATION_CONTEXT ( 3 ) GLOBAL_UNCERTAINTY_ASSIGNED_CONTEXT ( ( #177 ) ) GLOBAL_UNIT_ASSIGNED_CONTEXT ( ( #65, #154, #13 ) ) REPRESENTATION_CONTEXT ( 'NONE', 'WORKASPACE' ) );
#113 = CARTESIAN_POINT ( 'NONE',  ( -5.505952162497078200E-013, -4.284390515499813600, -0.02891879527942608000 ) ) ;
#114 = CARTESIAN_POINT ( 'NONE',  ( 12.69999999999999900, 2.442490654175340100E-015, 0.08470600520287420400 ) ) ;
#115 = FACE_OUTER_BOUND ( 'NONE', #105, .T. ) ;
#116 = VERTEX_POINT ( 'NONE', #39 ) ;
#117 = CARTESIAN_POINT ( 'NONE',  ( -7.840950111415168100E-013, -4.284390515499813600, -0.02891879527939393200 ) ) ;
#118 = AXIS2_PLACEMENT_3D ( 'NONE', #210, #171, #169 ) ;
#119 = CARTESIAN_POINT ( 'NONE',  ( -12.77658349983739900, -4.284390515499810100, 0.05680931990305837500 ) ) ;
#120 = DIRECTION ( 'NONE',  ( 0.0000000000000000000, 0.0000000000000000000, 1.000000000000000000 ) ) ;
#121 = APPROVAL_ROLE ( '' ) ;
#122 = DIRECTION ( 'NONE',  ( 0.0000000000000000000, 0.0000000000000000000, 1.000000000000000000 ) ) ;
#123 = PERSON_AND_ORGANIZATION ( #179, #46 ) ;
#124 = EDGE_LOOP ( 'NONE', ( #147, #95, #4, #181, #156 ) ) ;
#125 = CARTESIAN_POINT ( 'NONE',  ( 4.996003610813200500E-016, 2.442490654175340100E-015, 0.08470600520287420400 ) ) ;
#126 = ORIENTED_EDGE ( 'NONE', *, *, #231, .T. ) ;
#127 = CC_DESIGN_SECURITY_CLASSIFICATION ( #16, ( #198 ) ) ;
#128 = AXIS2_PLACEMENT_3D ( 'NONE', #195, #27, #28 ) ;
#129 = DATE_AND_TIME ( #3, #62 ) ;
#130 = EDGE_LOOP ( 'NONE', ( #91, #182, #196 ) ) ;
#131 =( BOUNDED_SURFACE ( )  B_SPLINE_SURFACE ( 3, 3, ( 
 ( #82, #132, #99, #23 ),
 ( #119, #190, #212, #117 ),
 ( #188, #228, #78, #97 ),
 ( #9, #206, #96, #225 ) ),
 .UNSPECIFIED., .F., .F., .F. ) 
 B_SPLINE_SURFACE_WITH_KNOTS ( ( 4, 4 ),
 ( 4, 4 ),
 ( 0.0000000000000000000, 1.000000000000000000 ),
 ( 0.0000000000000000000, 1.000000000000000000 ),
 .UNSPECIFIED. ) 
 GEOMETRIC_REPRESENTATION_ITEM ( )  RATIONAL_B_SPLINE_SURFACE ( (
 ( 1.000000000000000000, 0.9999849934397250200, 0.9999849934397250200, 1.000000000000000000),
 ( 0.9999392562994541300, 0.9999242506507332000, 0.9999242506507332000, 0.9999392562994541300),
 ( 0.9999392562994541300, 0.9999242506507332000, 0.9999242506507332000, 0.9999392562994541300),
 ( 1.000000000000000000, 0.9999849934397250200, 0.9999849934397250200, 1.000000000000000000) ) ) 
 REPRESENTATION_ITEM ( '' )  SURFACE ( )  );
#132 = CARTESIAN_POINT ( 'NONE',  ( -8.516911219328642700, -12.85239079729598900, 0.1153241115352427600 ) ) ;
#133 = ORIENTED_EDGE ( 'NONE', *, *, #5, .F. ) ;
#134 = CARTESIAN_POINT ( 'NONE',  ( -5.525979909168905900E-013, -12.69999999999734700, 0.08470600520285115300 ) ) ;
#135 = DIRECTION ( 'NONE',  ( 0.0000000000000000000, 0.0000000000000000000, 1.000000000000000000 ) ) ;
#136 = AXIS2_PLACEMENT_3D ( 'NONE', #79, #60, #26 ) ;
#137 = APPROVAL_STATUS ( 'not_yet_approved' ) ;
#138 = CIRCLE ( 'NONE', #89, 12.69999999999999900 ) ;
#139 = APPROVAL ( #63, 'UNSPECIFIED' ) ;
#140 = DATE_AND_TIME ( #54, #201 ) ;
#141 = APPROVAL_PERSON_ORGANIZATION ( #106, #158, #121 ) ;
#142 = EDGE_CURVE ( 'NONE', #53, #77, #193, .T. ) ;
#143 = DIRECTION ( 'NONE',  ( 1.000000000000000000, 0.0000000000000000000, 0.0000000000000000000 ) ) ;
#144 = CARTESIAN_POINT ( 'NONE',  ( 8.517946026738267000, 4.284390515499845600, -0.0003423280508144907800 ) ) ;
#145 = CYLINDRICAL_SURFACE ( 'NONE', #40, 12.69999999999999900 ) ;
#146 = DIRECTION ( 'NONE',  ( 1.000000000000000000, 0.0000000000000000000, 0.0000000000000000000 ) ) ;
#147 = ORIENTED_EDGE ( 'NONE', *, *, #231, .F. ) ;
#148 = VERTEX_POINT ( 'NONE', #7 ) ;
#149 = DIRECTION ( 'NONE',  ( -0.0000000000000000000, -0.0000000000000000000, -1.000000000000000000 ) ) ;
#150 = DIRECTION ( 'NONE',  ( 0.0000000000000000000, 0.0000000000000000000, 1.000000000000000000 ) ) ;
#151 = CARTESIAN_POINT ( 'NONE',  ( 4.996003610813200500E-016, 2.442490654175340100E-015, 0.08470600520287420400 ) ) ;
#152 = EDGE_CURVE ( 'NONE', #77, #148, #185, .T. ) ;
#153 = FACE_OUTER_BOUND ( 'NONE', #17, .T. ) ;
#154 =( NAMED_UNIT ( * ) PLANE_ANGLE_UNIT ( ) SI_UNIT ( $, .RADIAN. ) );
#155 = ADVANCED_BREP_SHAPE_REPRESENTATION ( '110-1265E UVFS pl-cx 25.4 F2000', ( #6, #87 ), #112 ) ;
#156 = ORIENTED_EDGE ( 'NONE', *, *, #164, .F. ) ;
#157 = MECHANICAL_CONTEXT ( 'NONE', #45, 'mechanical' ) ;
#158 = APPROVAL ( #194, 'UNSPECIFIED' ) ;
#159 = AXIS2_PLACEMENT_3D ( 'NONE', #57, #55, #73 ) ;
#160 = PRODUCT ( '110-1265E UVFS pl-cx 25.4 F2000', '110-1265E UVFS pl-cx 25.4 F2000', '', ( #157 ) ) ;
#161 = AXIS2_PLACEMENT_3D ( 'NONE', #168, #120, #101 ) ;
#162 = CIRCLE ( 'NONE', #159, 952.1000000000000200 ) ;
#163 = ORIENTED_EDGE ( 'NONE', *, *, #10, .T. ) ;
#164 = EDGE_CURVE ( 'NONE', #116, #14, #189, .T. ) ;
#165 = CARTESIAN_POINT ( 'NONE',  ( 8.517946026738267000, -4.284390515499816300, -0.0003423280508172419400 ) ) ;
#166 = APPROVAL_DATE_TIME ( #129, #21 ) ;
#167 = CALENDAR_DATE ( 2018, 13, 12 ) ;
#168 = CARTESIAN_POINT ( 'NONE',  ( 0.0000000000000000000, 26.11199999999999800, 4.000000000000000000 ) ) ;
#169 = DIRECTION ( 'NONE',  ( 1.000000000000000000, 0.0000000000000000000, 0.0000000000000000000 ) ) ;
#170 = EDGE_LOOP ( 'NONE', ( #216, #197, #92, #227, #180 ) ) ;
#171 = DIRECTION ( 'NONE',  ( -0.0000000000000000000, -0.0000000000000000000, -1.000000000000000000 ) ) ;
#172 = ADVANCED_FACE ( 'NONE', ( #153 ), #61, .T. ) ;
#173 = PERSON_AND_ORGANIZATION_ROLE ( 'creator' ) ;
#174 = AXIS2_PLACEMENT_3D ( 'NONE', #125, #234, #217 ) ;
#175 = APPROVAL_DATE_TIME ( #192, #139 ) ;
#176 = ORIENTED_EDGE ( 'NONE', *, *, #72, .F. ) ;
#177 = UNCERTAINTY_MEASURE_WITH_UNIT (LENGTH_MEASURE( 1.000000000000000100E-005 ), #65, 'distance_accuracy_value', 'NONE');
#178 = PERSON_AND_ORGANIZATION ( #179, #46 ) ;
#179 = PERSON ( 'UNSPECIFIED', 'UNSPECIFIED', 'UNSPECIFIED', ('UNSPECIFIED'), ('UNSPECIFIED'), ('UNSPECIFIED') ) ;
#180 = ORIENTED_EDGE ( 'NONE', *, *, #72, .T. ) ;
#181 = ORIENTED_EDGE ( 'NONE', *, *, #88, .F. ) ;
#182 = ORIENTED_EDGE ( 'NONE', *, *, #5, .T. ) ;
#183 = CARTESIAN_POINT ( 'NONE',  ( 12.77658349983720500, 4.284390515499844700, 0.05680931990301001100 ) ) ;
#184 = PERSON_AND_ORGANIZATION ( #179, #46 ) ;
#185 = CIRCLE ( 'NONE', #118, 12.69999999999999900 ) ;
#186 = CARTESIAN_POINT ( 'NONE',  ( 12.69999999999999900, 2.442490654175340100E-015, 0.08470600520287420400 ) ) ;
#187 = CC_DESIGN_APPROVAL ( #158, ( #32 ) ) ;
#188 = CARTESIAN_POINT ( 'NONE',  ( -12.77658349983739500, 4.284390515499851800, 0.05680931990306112300 ) ) ;
#189 = CIRCLE ( 'NONE', #136, 12.69999999999999900 ) ;
#190 = CARTESIAN_POINT ( 'NONE',  ( -8.517946026738844300, -4.284390515499811000, -0.0003423280507608904200 ) ) ;
#191 = PERSON_AND_ORGANIZATION_ROLE ( 'creator' ) ;
#192 = DATE_AND_TIME ( #52, #69 ) ;
#193 = LINE ( 'NONE', #211, #30 ) ;
#194 = APPROVAL_STATUS ( 'not_yet_approved' ) ;
#195 = CARTESIAN_POINT ( 'NONE',  ( 4.996003610813200500E-016, 2.442490654175340100E-015, 0.08470600520287420400 ) ) ;
#196 = ORIENTED_EDGE ( 'NONE', *, *, #164, .T. ) ;
#197 = ORIENTED_EDGE ( 'NONE', *, *, #10, .F. ) ;
#198 = PRODUCT_DEFINITION_FORMATION_WITH_SPECIFIED_SOURCE ( 'ANY', '', #160, .NOT_KNOWN. ) ;
#199 = COORDINATED_UNIVERSAL_TIME_OFFSET ( 2, 0, .AHEAD. ) ;
#200 = EDGE_CURVE ( 'NONE', #14, #109, #235, .T. ) ;
#201 = LOCAL_TIME ( 16, 56, 24.00000000000000000, #59 ) ;
#202 = DESIGN_CONTEXT ( 'detailed design', #47, 'design' ) ;
#203 = CARTESIAN_POINT ( 'NONE',  ( 4.996003610813200500E-016, 2.442490654175340100E-015, 0.08470600520287420400 ) ) ;
#204 = CARTESIAN_POINT ( 'NONE',  ( -5.485030278265388200E-013, 4.284390515499848300, -0.02891879527942332500 ) ) ;
#205 = CARTESIAN_POINT ( 'NONE',  ( -12.69999999999999900, 3.997792089092478900E-015, 0.08470600520287420400 ) ) ;
#206 = CARTESIAN_POINT ( 'NONE',  ( -8.516911219328635600, 12.85239079729602600, 0.1153241115352427600 ) ) ;
#207 = APPROVAL_PERSON_ORGANIZATION ( #230, #21, #232 ) ;
#208 = VECTOR ( 'NONE', #150, 1000.000000000000000 ) ;
#209 = CARTESIAN_POINT ( 'NONE',  ( 4.996003610813200500E-016, 2.442490654175340100E-015, 0.08470600520287420400 ) ) ;
#210 = CARTESIAN_POINT ( 'NONE',  ( 4.996003610813200500E-016, 2.442490654175340100E-015, 4.000000000000000000 ) ) ;
#211 = CARTESIAN_POINT ( 'NONE',  ( -12.69999999999999900, 3.997792089092478900E-015, 0.08470600520287420400 ) ) ;
#212 = CARTESIAN_POINT ( 'NONE',  ( -4.259020948310743300, -4.284390515499812800, -0.02891879527939093100 ) ) ;
#213 = AXIS2_PLACEMENT_3D ( 'NONE', #226, #149, #146 ) ;
#214 = DATE_AND_TIME ( #22, #71 ) ;
#215 = DATE_TIME_ROLE ( 'classification_date' ) ;
#216 = ORIENTED_EDGE ( 'NONE', *, *, #142, .F. ) ;
#217 = DIRECTION ( 'NONE',  ( 1.000000000000000000, 0.0000000000000000000, 0.0000000000000000000 ) ) ;
#218 = ADVANCED_FACE ( 'NONE', ( #115 ), #131, .T. ) ;
#219 = FACE_OUTER_BOUND ( 'NONE', #124, .T. ) ;
#220 = ORIENTED_EDGE ( 'NONE', *, *, #152, .F. ) ;
#221 = CARTESIAN_POINT ( 'NONE',  ( 8.516911219328063600, -12.85239079729599300, 0.1153241115351863900 ) ) ;
#222 = CARTESIAN_POINT ( 'NONE',  ( 8.516911219328067200, 12.85239079729602300, 0.1153241115351863900 ) ) ;
#223 = CARTESIAN_POINT ( 'NONE',  ( -5.526342630699668000E-013, -12.85239079729598900, 0.08675111593459128300 ) ) ;
#224 = CC_DESIGN_DATE_AND_TIME_ASSIGNMENT ( #90, #215, ( #16 ) ) ;
#225 = CARTESIAN_POINT ( 'NONE',  ( -7.788908407135863900E-013, 12.85239079729602500, 0.08675111593462341000 ) ) ;
#226 = CARTESIAN_POINT ( 'NONE',  ( 4.996003610813200500E-016, 2.442490654175340100E-015, 4.000000000000000000 ) ) ;
#227 = ORIENTED_EDGE ( 'NONE', *, *, #88, .T. ) ;
#228 = CARTESIAN_POINT ( 'NONE',  ( -8.517946026738840700, 4.284390515499850900, -0.0003423280507581324900 ) ) ;
#229 = CC_DESIGN_APPROVAL ( #21, ( #16 ) ) ;
#230 = PERSON_AND_ORGANIZATION ( #179, #46 ) ;
#231 = EDGE_CURVE ( 'NONE', #53, #116, #11, .T. ) ;
#232 = APPROVAL_ROLE ( '' ) ;
#233 = ADVANCED_FACE ( 'NONE', ( #219 ), #8, .T. ) ;
#234 = DIRECTION ( 'NONE',  ( 0.0000000000000000000, 0.0000000000000000000, 1.000000000000000000 ) ) ;
#235 = CIRCLE ( 'NONE', #2, 12.69999999999999900 ) ;
ENDSEC;
END-ISO-10303-21;
