ISO-10303-21;
HEADER;
FILE_DESCRIPTION (( 'STEP AP203' ),
    '1' );
FILE_NAME ('110-1246E UVFS pl-cx 25.4 F1100.STEP',
    '2018-12-13T14:56:59',
    ( '' ),
    ( '' ),
    'SwSTEP 2.0',
    'SolidWorks 2017',
    '' );
FILE_SCHEMA (( 'CONFIG_CONTROL_DESIGN' ));
ENDSEC;

DATA;
#1 = CIRCLE ( 'NONE', #234, 523.7000000000000500 ) ;
#2 = ORIENTED_EDGE ( 'NONE', *, *, #179, .T. ) ;
#3 = EDGE_CURVE ( 'NONE', #181, #160, #204, .T. ) ;
#4 = DIRECTION ( 'NONE',  ( 1.000000000000000000, 0.0000000000000000000, 0.0000000000000000000 ) ) ;
#5 = CARTESIAN_POINT ( 'NONE',  ( -8.519051448128657000, 4.284983581160706700, -0.0006243311325263867800 ) ) ;
#6 = CARTESIAN_POINT ( 'NONE',  ( -2.324529457808921500E-013, -12.85236957809800500, 0.1577317959628315200 ) ) ;
#7 = VECTOR ( 'NONE', #188, 1000.000000000000000 ) ;
#8 = ORIENTED_EDGE ( 'NONE', *, *, #104, .F. ) ;
#9 = CARTESIAN_POINT ( 'NONE',  ( 0.0000000000000000000, -1.705302565824239900E-013, 523.7000000000000500 ) ) ;
#10 = DATE_AND_TIME ( #146, #158 ) ;
#11 = AXIS2_PLACEMENT_3D ( 'NONE', #166, #105, #183 ) ;
#12 = PERSON_AND_ORGANIZATION ( #202, #94 ) ;
#13 = ADVANCED_FACE ( 'NONE', ( #81 ), #29, .T. ) ;
#14 = DATE_AND_TIME ( #64, #44 ) ;
#15 = EDGE_LOOP ( 'NONE', ( #50, #2, #198 ) ) ;
#16 = CARTESIAN_POINT ( 'NONE',  ( 4.259684204422050900, -4.284983581160895800, -0.05258782451137444800 ) ) ;
#17 = ORIENTED_EDGE ( 'NONE', *, *, #3, .F. ) ;
#18 = CARTESIAN_POINT ( 'NONE',  ( -9.756727904806901700E-014, 12.85236957809781300, 0.1577317959627899700 ) ) ;
#19 = CARTESIAN_POINT ( 'NONE',  ( 12.69999999999999900, 2.442490654175340100E-015, 0.1540134811460530100 ) ) ;
#20 = VECTOR ( 'NONE', #88, 1000.000000000000000 ) ;
#21 = APPLICATION_CONTEXT ( 'configuration controlled 3d designs of mechanical parts and assemblies' ) ;
#22 = APPROVAL_STATUS ( 'not_yet_approved' ) ;
#23 =( BOUNDED_SURFACE ( )  B_SPLINE_SURFACE ( 3, 3, ( 
 ( #168, #212, #148, #59 ),
 ( #144, #16, #35, #108 ),
 ( #57, #71, #95, #93 ),
 ( #18, #228, #110, #208 ) ),
 .UNSPECIFIED., .F., .F., .F. ) 
 B_SPLINE_SURFACE_WITH_KNOTS ( ( 4, 4 ),
 ( 4, 4 ),
 ( 0.0000000000000000000, 1.000000000000000000 ),
 ( 0.0000000000000000000, 1.000000000000000000 ),
 .UNSPECIFIED. ) 
 GEOMETRIC_REPRESENTATION_ITEM ( )  RATIONAL_B_SPLINE_SURFACE ( (
 ( 1.000000000000000000, 0.9999503937067485400, 0.9999503937067485400, 1.000000000000000000),
 ( 0.9997992084578157800, 0.9997496121250883900, 0.9997496121250883900, 0.9997992084578157800),
 ( 0.9997992084578157800, 0.9997496121250883900, 0.9997496121250883900, 0.9997992084578157800),
 ( 1.000000000000000000, 0.9999503937067485400, 0.9999503937067485400, 1.000000000000000000) ) ) 
 REPRESENTATION_ITEM ( '' )  SURFACE ( )  );
#24 = CIRCLE ( 'NONE', #224, 12.69999999999999900 ) ;
#25 = EDGE_LOOP ( 'NONE', ( #159, #65 ) ) ;
#26 = CC_DESIGN_PERSON_AND_ORGANIZATION_ASSIGNMENT ( #221, #78, ( #66 ) ) ;
#27 = ADVANCED_FACE ( 'NONE', ( #68 ), #74, .T. ) ;
#28 = AXIS2_PLACEMENT_3D ( 'NONE', #145, #171, #192 ) ;
#29 = CYLINDRICAL_SURFACE ( 'NONE', #11, 12.69999999999999900 ) ;
#30 = COORDINATED_UNIVERSAL_TIME_OFFSET ( 2, 0, .AHEAD. ) ;
#31 = APPROVAL ( #22, 'UNSPECIFIED' ) ;
#32 = APPROVAL_DATE_TIME ( #119, #53 ) ;
#33 = DIRECTION ( 'NONE',  ( 1.000000000000000000, 0.0000000000000000000, 0.0000000000000000000 ) ) ;
#34 = CARTESIAN_POINT ( 'NONE',  ( -12.77746785685764600, 4.284983581160706700, 0.1032949224762097100 ) ) ;
#35 = CARTESIAN_POINT ( 'NONE',  ( 8.519051448128500700, -4.284983581160896700, -0.0006243311325767344200 ) ) ;
#36 = COORDINATED_UNIVERSAL_TIME_OFFSET ( 2, 0, .AHEAD. ) ;
#37 = CARTESIAN_POINT ( 'NONE',  ( 4.996003610813200500E-016, 2.442490654175340100E-015, 0.1540134811460530100 ) ) ;
#38 = PRODUCT_DEFINITION ( 'UNKNOWN', '', #111, #47 ) ;
#39 = VERTEX_POINT ( 'NONE', #122 ) ;
#40 = CC_DESIGN_APPROVAL ( #31, ( #38 ) ) ;
#41 = APPLICATION_PROTOCOL_DEFINITION ( 'international standard', 'config_control_design', 1994, #21 ) ;
#42 = DATE_TIME_ROLE ( 'creation_date' ) ;
#43 = PERSON_AND_ORGANIZATION ( #202, #94 ) ;
#44 = LOCAL_TIME ( 16, 56, 59.00000000000000000, #178 ) ;
#45 = VERTEX_POINT ( 'NONE', #70 ) ;
#46 = CC_DESIGN_PERSON_AND_ORGANIZATION_ASSIGNMENT ( #210, #219, ( #38 ) ) ;
#47 = DESIGN_CONTEXT ( 'detailed design', #62, 'design' ) ;
#48 = DATE_AND_TIME ( #209, #197 ) ;
#49 = SHAPE_DEFINITION_REPRESENTATION ( #186, #195 ) ;
#50 = ORIENTED_EDGE ( 'NONE', *, *, #123, .T. ) ;
#51 = CARTESIAN_POINT ( 'NONE',  ( -9.760181041512623500E-014, 12.70000000000062800, 0.1540134811460644200 ) ) ;
#52 = AXIS2_PLACEMENT_3D ( 'NONE', #227, #55, #58 ) ;
#53 = APPROVAL ( #175, 'UNSPECIFIED' ) ;
#54 = DIRECTION ( 'NONE',  ( -2.219482603615210800E-016, -1.000000000000000000, -4.239919895456010800E-016 ) ) ;
#55 = DIRECTION ( 'NONE',  ( -0.0000000000000000000, -0.0000000000000000000, -1.000000000000000000 ) ) ;
#56 = LINE ( 'NONE', #161, #20 ) ;
#57 = CARTESIAN_POINT ( 'NONE',  ( -9.950913655001586200E-014, 4.284983581160703100, -0.05258782451137607200 ) ) ;
#58 = DIRECTION ( 'NONE',  ( 1.000000000000000000, 0.0000000000000000000, 0.0000000000000000000 ) ) ;
#59 = CARTESIAN_POINT ( 'NONE',  ( 12.77233689950719500, -12.85236957809800800, 0.3135519462186861500 ) ) ;
#60 = EDGE_CURVE ( 'NONE', #75, #45, #216, .T. ) ;
#61 = APPROVAL_ROLE ( '' ) ;
#62 = APPLICATION_CONTEXT ( 'configuration controlled 3d designs of mechanical parts and assemblies' ) ;
#63 = PERSON_AND_ORGANIZATION_ROLE ( 'creator' ) ;
#64 = CALENDAR_DATE ( 2018, 13, 12 ) ;
#65 = ORIENTED_EDGE ( 'NONE', *, *, #184, .F. ) ;
#66 = PRODUCT ( '110-1246E UVFS pl-cx 25.4 F1100', '110-1246E UVFS pl-cx 25.4 F1100', '', ( #174 ) ) ;
#67 = AXIS2_PLACEMENT_3D ( 'NONE', #114, #211, #191 ) ;
#68 = FACE_OUTER_BOUND ( 'NONE', #130, .T. ) ;
#69 = DIRECTION ( 'NONE',  ( -0.0000000000000000000, -0.0000000000000000000, -1.000000000000000000 ) ) ;
#70 = CARTESIAN_POINT ( 'NONE',  ( -12.69999999999999900, 3.997792089092478900E-015, 4.000000000000000000 ) ) ;
#71 = CARTESIAN_POINT ( 'NONE',  ( 4.259684204422052600, 4.284983581160703100, -0.05258782451137689100 ) ) ;
#72 = DIRECTION ( 'NONE',  ( -0.0000000000000000000, -0.0000000000000000000, -1.000000000000000000 ) ) ;
#73 = CARTESIAN_POINT ( 'NONE',  ( -12.77746785685764900, -4.284983581160890500, 0.1032949224762121500 ) ) ;
#74 = CYLINDRICAL_SURFACE ( 'NONE', #177, 12.69999999999999900 ) ;
#75 = VERTEX_POINT ( 'NONE', #120 ) ;
#76 = CARTESIAN_POINT ( 'NONE',  ( -8.519051448128660600, -4.284983581160892300, -0.0006243311325239473200 ) ) ;
#77 = CC_DESIGN_DATE_AND_TIME_ASSIGNMENT ( #100, #42, ( #38 ) ) ;
#78 = PERSON_AND_ORGANIZATION_ROLE ( 'design_owner' ) ;
#79 = APPROVAL_PERSON_ORGANIZATION ( #12, #121, #154 ) ;
#80 = CC_DESIGN_PERSON_AND_ORGANIZATION_ASSIGNMENT ( #235, #63, ( #111 ) ) ;
#81 = FACE_OUTER_BOUND ( 'NONE', #134, .T. ) ;
#82 = PERSON_AND_ORGANIZATION_ROLE ( 'classification_officer' ) ;
#83 =( NAMED_UNIT ( * ) PLANE_ANGLE_UNIT ( ) SI_UNIT ( $, .RADIAN. ) );
#84 = APPROVAL_PERSON_ORGANIZATION ( #164, #53, #98 ) ;
#85 = ORIENTED_EDGE ( 'NONE', *, *, #118, .T. ) ;
#86 = ADVANCED_FACE ( 'NONE', ( #225 ), #90, .T. ) ;
#87 = ORIENTED_EDGE ( 'NONE', *, *, #199, .F. ) ;
#88 = DIRECTION ( 'NONE',  ( 0.0000000000000000000, 0.0000000000000000000, 1.000000000000000000 ) ) ;
#89 = DIRECTION ( 'NONE',  ( 1.000000000000000000, 0.0000000000000000000, 0.0000000000000000000 ) ) ;
#90 = PLANE ( 'NONE',  #151 ) ;
#91 = SECURITY_CLASSIFICATION ( '', '', #196 ) ;
#92 = DIRECTION ( 'NONE',  ( -0.0000000000000000000, -0.0000000000000000000, -1.000000000000000000 ) ) ;
#93 = CARTESIAN_POINT ( 'NONE',  ( 12.77746785685757100, 4.284983581160700400, 0.1032949224761583500 ) ) ;
#94 = ORGANIZATION ( 'UNSPECIFIED', 'UNSPECIFIED', '' ) ;
#95 = CARTESIAN_POINT ( 'NONE',  ( 8.519051448128504200, 4.284983581160702200, -0.0006243311325791605400 ) ) ;
#96 = DIRECTION ( 'NONE',  ( 1.000000000000000000, 0.0000000000000000000, 0.0000000000000000000 ) ) ;
#97 = CARTESIAN_POINT ( 'NONE',  ( -4.259684204422298700, 4.284983581160705800, -0.05258782451133254400 ) ) ;
#98 = APPROVAL_ROLE ( '' ) ;
#99 = CC_DESIGN_DATE_AND_TIME_ASSIGNMENT ( #48, #232, ( #91 ) ) ;
#100 = DATE_AND_TIME ( #233, #129 ) ;
#101 = DIRECTION ( 'NONE',  ( 0.0000000000000000000, 0.0000000000000000000, 1.000000000000000000 ) ) ;
#102 = PERSON_AND_ORGANIZATION ( #202, #94 ) ;
#103 = ORIENTED_EDGE ( 'NONE', *, *, #179, .F. ) ;
#104 = EDGE_CURVE ( 'NONE', #155, #181, #24, .T. ) ;
#105 = DIRECTION ( 'NONE',  ( 0.0000000000000000000, 0.0000000000000000000, 1.000000000000000000 ) ) ;
#106 = DIRECTION ( 'NONE',  ( -0.0000000000000000000, -0.0000000000000000000, -1.000000000000000000 ) ) ;
#107 = COORDINATED_UNIVERSAL_TIME_OFFSET ( 2, 0, .AHEAD. ) ;
#108 = CARTESIAN_POINT ( 'NONE',  ( 12.77746785685756900, -4.284983581160896700, 0.1032949224761607900 ) ) ;
#109 = CARTESIAN_POINT ( 'NONE',  ( -4.257973673179040300, -12.85236957809800300, 0.1577317959628334300 ) ) ;
#110 = CARTESIAN_POINT ( 'NONE',  ( 8.515630512921648100, 12.85236957809781100, 0.2096744227292588700 ) ) ;
#111 = PRODUCT_DEFINITION_FORMATION_WITH_SPECIFIED_SOURCE ( 'ANY', '', #66, .NOT_KNOWN. ) ;
#112 = CARTESIAN_POINT ( 'NONE',  ( -4.257973673179033200, 12.85236957809781400, 0.1577317959628334900 ) ) ;
#113 = LINE ( 'NONE', #226, #7 ) ;
#114 = CARTESIAN_POINT ( 'NONE',  ( 4.996003610813200500E-016, 2.442490654175340100E-015, 0.1540134811460530100 ) ) ;
#115 = ORIENTED_EDGE ( 'NONE', *, *, #215, .F. ) ;
#116 = FACE_OUTER_BOUND ( 'NONE', #15, .T. ) ;
#117 = ORIENTED_EDGE ( 'NONE', *, *, #104, .T. ) ;
#118 = EDGE_CURVE ( 'NONE', #160, #75, #56, .T. ) ;
#119 = DATE_AND_TIME ( #176, #229 ) ;
#120 = CARTESIAN_POINT ( 'NONE',  ( 12.69999999999999900, 2.442490654175340100E-015, 4.000000000000000000 ) ) ;
#121 = APPROVAL ( #217, 'UNSPECIFIED' ) ;
#122 = CARTESIAN_POINT ( 'NONE',  ( -1.032392962283092100E-013, -12.70000000000079300, 0.1540134811460644200 ) ) ;
#123 = EDGE_CURVE ( 'NONE', #160, #39, #173, .T. ) ;
#124 = DIRECTION ( 'NONE',  ( 0.0000000000000000000, 0.0000000000000000000, 1.000000000000000000 ) ) ;
#125 = APPROVAL_DATE_TIME ( #14, #31 ) ;
#126 = CARTESIAN_POINT ( 'NONE',  ( -8.515630512921800800, 12.85236957809781400, 0.2096744227293116100 ) ) ;
#127 = CC_DESIGN_PERSON_AND_ORGANIZATION_ASSIGNMENT ( #43, #194, ( #111 ) ) ;
#128 = CARTESIAN_POINT ( 'NONE',  ( -4.259684204422302200, -4.284983581160893200, -0.05258782451133019900 ) ) ;
#129 = LOCAL_TIME ( 16, 56, 59.00000000000000000, #153 ) ;
#130 = EDGE_LOOP ( 'NONE', ( #115, #87, #206, #85, #140 ) ) ;
#131 = CARTESIAN_POINT ( 'NONE',  ( -2.255140518769849200E-013, 12.85236957809781300, 0.1577317959628315700 ) ) ;
#132 = CIRCLE ( 'NONE', #52, 12.69999999999999900 ) ;
#133 =( NAMED_UNIT ( * ) SI_UNIT ( $, .STERADIAN. ) SOLID_ANGLE_UNIT ( ) );
#134 = EDGE_LOOP ( 'NONE', ( #8, #218, #137, #220, #17 ) ) ;
#135 = CC_DESIGN_APPROVAL ( #121, ( #91 ) ) ;
#136 = CC_DESIGN_APPROVAL ( #53, ( #111 ) ) ;
#137 = ORIENTED_EDGE ( 'NONE', *, *, #184, .T. ) ;
#138 =( GEOMETRIC_REPRESENTATION_CONTEXT ( 3 ) GLOBAL_UNCERTAINTY_ASSIGNED_CONTEXT ( ( #167 ) ) GLOBAL_UNIT_ASSIGNED_CONTEXT ( ( #193, #83, #133 ) ) REPRESENTATION_CONTEXT ( 'NONE', 'WORKASPACE' ) );
#139 = APPROVAL_PERSON_ORGANIZATION ( #180, #31, #61 ) ;
#140 = ORIENTED_EDGE ( 'NONE', *, *, #60, .T. ) ;
#141 = DIRECTION ( 'NONE',  ( 1.000000000000000000, 0.0000000000000000000, -0.0000000000000000000 ) ) ;
#142 = CARTESIAN_POINT ( 'NONE',  ( 0.0000000000000000000, 26.11199999999999800, 4.000000000000000000 ) ) ;
#143 = CARTESIAN_POINT ( 'NONE',  ( 4.996003610813200500E-016, 2.442490654175340100E-015, 0.1540134811460530100 ) ) ;
#144 = CARTESIAN_POINT ( 'NONE',  ( -1.014112258530485200E-013, -4.284983581160894100, -0.05258782451137363600 ) ) ;
#145 = CARTESIAN_POINT ( 'NONE',  ( 0.0000000000000000000, 0.0000000000000000000, 0.0000000000000000000 ) ) ;
#146 = CALENDAR_DATE ( 2018, 13, 12 ) ;
#147 = FACE_OUTER_BOUND ( 'NONE', #170, .T. ) ;
#148 = CARTESIAN_POINT ( 'NONE',  ( 8.515630512921641000, -12.85236957809800600, 0.2096744227292588700 ) ) ;
#149 = CC_DESIGN_SECURITY_CLASSIFICATION ( #91, ( #111 ) ) ;
#150 = CC_DESIGN_PERSON_AND_ORGANIZATION_ASSIGNMENT ( #102, #82, ( #91 ) ) ;
#151 = AXIS2_PLACEMENT_3D ( 'NONE', #142, #124, #141 ) ;
#152 = APPLICATION_PROTOCOL_DEFINITION ( 'international standard', 'config_control_design', 1994, #62 ) ;
#153 = COORDINATED_UNIVERSAL_TIME_OFFSET ( 2, 0, .AHEAD. ) ;
#154 = APPROVAL_ROLE ( '' ) ;
#155 = VERTEX_POINT ( 'NONE', #165 ) ;
#156 = CLOSED_SHELL ( 'NONE', ( #203, #13, #200, #27, #86 ) ) ;
#157 = AXIS2_PLACEMENT_3D ( 'NONE', #207, #92, #33 ) ;
#158 = LOCAL_TIME ( 16, 56, 59.00000000000000000, #107 ) ;
#159 = ORIENTED_EDGE ( 'NONE', *, *, #60, .F. ) ;
#160 = VERTEX_POINT ( 'NONE', #19 ) ;
#161 = CARTESIAN_POINT ( 'NONE',  ( 12.69999999999999900, 2.442490654175340100E-015, 0.1540134811460530100 ) ) ;
#162 = CARTESIAN_POINT ( 'NONE',  ( 4.996003610813200500E-016, 2.442490654175340100E-015, 0.1540134811460530100 ) ) ;
#163 = PRODUCT_RELATED_PRODUCT_CATEGORY ( 'detail', '', ( #66 ) ) ;
#164 = PERSON_AND_ORGANIZATION ( #202, #94 ) ;
#165 = CARTESIAN_POINT ( 'NONE',  ( -12.69999999999999900, 3.997792089092478900E-015, 0.1540134811460530100 ) ) ;
#166 = CARTESIAN_POINT ( 'NONE',  ( 4.996003610813200500E-016, 2.442490654175340100E-015, 0.1540134811460530100 ) ) ;
#167 = UNCERTAINTY_MEASURE_WITH_UNIT (LENGTH_MEASURE( 1.000000000000000100E-005 ), #193, 'distance_accuracy_value', 'NONE');
#168 = CARTESIAN_POINT ( 'NONE',  ( -1.032724011868333500E-013, -12.85236957809800500, 0.1577317959627899700 ) ) ;
#169 = AXIS2_PLACEMENT_3D ( 'NONE', #182, #106, #205 ) ;
#170 = EDGE_LOOP ( 'NONE', ( #103, #223, #117 ) ) ;
#171 = DIRECTION ( 'NONE',  ( 0.0000000000000000000, 0.0000000000000000000, 1.000000000000000000 ) ) ;
#172 = DIRECTION ( 'NONE',  ( 1.000000000000000000, -2.219482603615210000E-016, -1.918084674651619900E-016 ) ) ;
#173 = CIRCLE ( 'NONE', #201, 12.69999999999999900 ) ;
#174 = MECHANICAL_CONTEXT ( 'NONE', #21, 'mechanical' ) ;
#175 = APPROVAL_STATUS ( 'not_yet_approved' ) ;
#176 = CALENDAR_DATE ( 2018, 13, 12 ) ;
#177 = AXIS2_PLACEMENT_3D ( 'NONE', #143, #101, #4 ) ;
#178 = COORDINATED_UNIVERSAL_TIME_OFFSET ( 2, 0, .AHEAD. ) ;
#179 = EDGE_CURVE ( 'NONE', #39, #181, #1, .T. ) ;
#180 = PERSON_AND_ORGANIZATION ( #202, #94 ) ;
#181 = VERTEX_POINT ( 'NONE', #51 ) ;
#182 = CARTESIAN_POINT ( 'NONE',  ( 4.996003610813200500E-016, 2.442490654175340100E-015, 0.1540134811460530100 ) ) ;
#183 = DIRECTION ( 'NONE',  ( 1.000000000000000000, 0.0000000000000000000, 0.0000000000000000000 ) ) ;
#184 = EDGE_CURVE ( 'NONE', #45, #75, #132, .T. ) ;
#185 = APPROVAL_DATE_TIME ( #10, #121 ) ;
#186 = PRODUCT_DEFINITION_SHAPE ( 'NONE', 'NONE',  #38 ) ;
#187 = CARTESIAN_POINT ( 'NONE',  ( -12.77233689950727900, -12.85236957809800100, 0.3135519462187375000 ) ) ;
#188 = DIRECTION ( 'NONE',  ( 0.0000000000000000000, 0.0000000000000000000, 1.000000000000000000 ) ) ;
#189 = CIRCLE ( 'NONE', #67, 12.69999999999999900 ) ;
#190 = MANIFOLD_SOLID_BREP ( 'Imported1', #156 ) ;
#191 = DIRECTION ( 'NONE',  ( 1.000000000000000000, 0.0000000000000000000, 0.0000000000000000000 ) ) ;
#192 = DIRECTION ( 'NONE',  ( 1.000000000000000000, 0.0000000000000000000, 0.0000000000000000000 ) ) ;
#193 =( LENGTH_UNIT ( ) NAMED_UNIT ( * ) SI_UNIT ( .MILLI., .METRE. ) );
#194 = PERSON_AND_ORGANIZATION_ROLE ( 'design_supplier' ) ;
#195 = ADVANCED_BREP_SHAPE_REPRESENTATION ( '110-1246E UVFS pl-cx 25.4 F1100', ( #190, #28 ), #138 ) ;
#196 = SECURITY_CLASSIFICATION_LEVEL ( 'unclassified' ) ;
#197 = LOCAL_TIME ( 16, 56, 59.00000000000000000, #36 ) ;
#198 = ORIENTED_EDGE ( 'NONE', *, *, #3, .T. ) ;
#199 = EDGE_CURVE ( 'NONE', #39, #155, #189, .T. ) ;
#200 = ADVANCED_FACE ( 'NONE', ( #147 ), #222, .T. ) ;
#201 = AXIS2_PLACEMENT_3D ( 'NONE', #37, #72, #96 ) ;
#202 = PERSON ( 'UNSPECIFIED', 'UNSPECIFIED', 'UNSPECIFIED', ('UNSPECIFIED'), ('UNSPECIFIED'), ('UNSPECIFIED') ) ;
#203 = ADVANCED_FACE ( 'NONE', ( #116 ), #23, .T. ) ;
#204 = CIRCLE ( 'NONE', #169, 12.69999999999999900 ) ;
#205 = DIRECTION ( 'NONE',  ( 1.000000000000000000, -8.881784197001252300E-016, 0.0000000000000000000 ) ) ;
#206 = ORIENTED_EDGE ( 'NONE', *, *, #123, .F. ) ;
#207 = CARTESIAN_POINT ( 'NONE',  ( 4.996003610813200500E-016, 2.442490654175340100E-015, 4.000000000000000000 ) ) ;
#208 = CARTESIAN_POINT ( 'NONE',  ( 12.77233689950720000, 12.85236957809780900, 0.3135519462186861500 ) ) ;
#209 = CALENDAR_DATE ( 2018, 13, 12 ) ;
#210 = PERSON_AND_ORGANIZATION ( #202, #94 ) ;
#211 = DIRECTION ( 'NONE',  ( -0.0000000000000000000, -0.0000000000000000000, -1.000000000000000000 ) ) ;
#212 = CARTESIAN_POINT ( 'NONE',  ( 4.257973673178787200, -12.85236957809800600, 0.1577317959627891900 ) ) ;
#213 = CARTESIAN_POINT ( 'NONE',  ( -2.324529457808921500E-013, -4.284983581160893200, -0.05258782451133208600 ) ) ;
#214 = CARTESIAN_POINT ( 'NONE',  ( -8.515630512921807900, -12.85236957809800300, 0.2096744227293116100 ) ) ;
#215 = EDGE_CURVE ( 'NONE', #155, #45, #113, .T. ) ;
#216 = CIRCLE ( 'NONE', #157, 12.69999999999999900 ) ;
#217 = APPROVAL_STATUS ( 'not_yet_approved' ) ;
#218 = ORIENTED_EDGE ( 'NONE', *, *, #215, .T. ) ;
#219 = PERSON_AND_ORGANIZATION_ROLE ( 'creator' ) ;
#220 = ORIENTED_EDGE ( 'NONE', *, *, #118, .F. ) ;
#221 = PERSON_AND_ORGANIZATION ( #202, #94 ) ;
#222 =( BOUNDED_SURFACE ( )  B_SPLINE_SURFACE ( 3, 3, ( 
 ( #187, #214, #109, #6 ),
 ( #73, #76, #128, #213 ),
 ( #34, #5, #97, #230 ),
 ( #231, #126, #112, #131 ) ),
 .UNSPECIFIED., .F., .F., .F. ) 
 B_SPLINE_SURFACE_WITH_KNOTS ( ( 4, 4 ),
 ( 4, 4 ),
 ( 0.0000000000000000000, 1.000000000000000000 ),
 ( 0.0000000000000000000, 1.000000000000000000 ),
 .UNSPECIFIED. ) 
 GEOMETRIC_REPRESENTATION_ITEM ( )  RATIONAL_B_SPLINE_SURFACE ( (
 ( 1.000000000000000000, 0.9999503937067485400, 0.9999503937067485400, 1.000000000000000000),
 ( 0.9997992084578157800, 0.9997496121250883900, 0.9997496121250883900, 0.9997992084578157800),
 ( 0.9997992084578157800, 0.9997496121250883900, 0.9997496121250883900, 0.9997992084578157800),
 ( 1.000000000000000000, 0.9999503937067485400, 0.9999503937067485400, 1.000000000000000000) ) ) 
 REPRESENTATION_ITEM ( '' )  SURFACE ( )  );
#223 = ORIENTED_EDGE ( 'NONE', *, *, #199, .T. ) ;
#224 = AXIS2_PLACEMENT_3D ( 'NONE', #162, #69, #89 ) ;
#225 = FACE_OUTER_BOUND ( 'NONE', #25, .T. ) ;
#226 = CARTESIAN_POINT ( 'NONE',  ( -12.69999999999999900, 3.997792089092478900E-015, 0.1540134811460530100 ) ) ;
#227 = CARTESIAN_POINT ( 'NONE',  ( 4.996003610813200500E-016, 2.442490654175340100E-015, 4.000000000000000000 ) ) ;
#228 = CARTESIAN_POINT ( 'NONE',  ( 4.257973673178792500, 12.85236957809781100, 0.1577317959627891900 ) ) ;
#229 = LOCAL_TIME ( 16, 56, 59.00000000000000000, #30 ) ;
#230 = CARTESIAN_POINT ( 'NONE',  ( -2.289834988289385400E-013, 4.284983581160704000, -0.05258782451133441100 ) ) ;
#231 = CARTESIAN_POINT ( 'NONE',  ( -12.77233689950727100, 12.85236957809781600, 0.3135519462187375000 ) ) ;
#232 = DATE_TIME_ROLE ( 'classification_date' ) ;
#233 = CALENDAR_DATE ( 2018, 13, 12 ) ;
#234 = AXIS2_PLACEMENT_3D ( 'NONE', #9, #172, #54 ) ;
#235 = PERSON_AND_ORGANIZATION ( #202, #94 ) ;
ENDSEC;
END-ISO-10303-21;
