ISO-10303-21;
HEADER;
FILE_DESCRIPTION (( 'STEP AP203' ),
    '1' );
FILE_NAME ('110-1245E UVFS pl-cx 25.4 F1000.STEP',
    '2018-12-13T14:57:12',
    ( '' ),
    ( '' ),
    'SwSTEP 2.0',
    'SolidWorks 2017',
    '' );
FILE_SCHEMA (( 'CONFIG_CONTROL_DESIGN' ));
ENDSEC;

DATA;
#1 = APPROVAL_STATUS ( 'not_yet_approved' ) ;
#2 = ADVANCED_FACE ( 'NONE', ( #57 ), #201, .T. ) ;
#3 = CC_DESIGN_PERSON_AND_ORGANIZATION_ASSIGNMENT ( #16, #78, ( #81 ) ) ;
#4 = AXIS2_PLACEMENT_3D ( 'NONE', #101, #173, #67 ) ;
#5 = LOCAL_TIME ( 16, 57, 12.00000000000000000, #63 ) ;
#6 = CIRCLE ( 'NONE', #141, 476.1000000000000200 ) ;
#7 = ORIENTED_EDGE ( 'NONE', *, *, #167, .F. ) ;
#8 = COORDINATED_UNIVERSAL_TIME_OFFSET ( 2, 0, .AHEAD. ) ;
#9 = VERTEX_POINT ( 'NONE', #198 ) ;
#10 = DIRECTION ( 'NONE',  ( 1.000000000000000000, -8.881784197001252300E-016, 0.0000000000000000000 ) ) ;
#11 = UNCERTAINTY_MEASURE_WITH_UNIT (LENGTH_MEASURE( 1.000000000000000100E-005 ), #212, 'distance_accuracy_value', 'NONE');
#12 = LINE ( 'NONE', #134, #71 ) ;
#13 = ORIENTED_EDGE ( 'NONE', *, *, #194, .T. ) ;
#14 = COORDINATED_UNIVERSAL_TIME_OFFSET ( 2, 0, .AHEAD. ) ;
#15 = ADVANCED_FACE ( 'NONE', ( #65 ), #125, .T. ) ;
#16 = PERSON_AND_ORGANIZATION ( #168, #24 ) ;
#17 =( NAMED_UNIT ( * ) SI_UNIT ( $, .STERADIAN. ) SOLID_ANGLE_UNIT ( ) );
#18 = APPROVAL ( #59, 'UNSPECIFIED' ) ;
#19 = PERSON_AND_ORGANIZATION_ROLE ( 'classification_officer' ) ;
#20 = CIRCLE ( 'NONE', #230, 12.69999999999999900 ) ;
#21 = AXIS2_PLACEMENT_3D ( 'NONE', #204, #228, #140 ) ;
#22 = FACE_OUTER_BOUND ( 'NONE', #104, .T. ) ;
#23 = CC_DESIGN_PERSON_AND_ORGANIZATION_ASSIGNMENT ( #229, #108, ( #151 ) ) ;
#24 = ORGANIZATION ( 'UNSPECIFIED', 'UNSPECIFIED', '' ) ;
#25 = ORIENTED_EDGE ( 'NONE', *, *, #53, .T. ) ;
#26 = CARTESIAN_POINT ( 'NONE',  ( -4.259883931287740600, -4.285162168591916100, -0.05784971418190294800 ) ) ;
#27 = CARTESIAN_POINT ( 'NONE',  ( -12.69999999999999900, 3.997792089092478900E-015, 0.1694168263611159900 ) ) ;
#28 = CARTESIAN_POINT ( 'NONE',  ( 4.259883931287572700, -4.285162168591917900, -0.05784971418186982100 ) ) ;
#29 = LOCAL_TIME ( 16, 57, 12.00000000000000000, #185 ) ;
#30 = CARTESIAN_POINT ( 'NONE',  ( 12.77773415995071600, 4.285162168591971200, 0.1136269238676899400 ) ) ;
#31 = CARTESIAN_POINT ( 'NONE',  ( 12.69999999999999900, 2.442490654175340100E-015, 4.000000000000000000 ) ) ;
#32 = CARTESIAN_POINT ( 'NONE',  ( 4.257814128899650700, -12.85236318909002200, 0.1735069777521460700 ) ) ;
#33 = VERTEX_POINT ( 'NONE', #98 ) ;
#34 = AXIS2_PLACEMENT_3D ( 'NONE', #200, #182, #135 ) ;
#35 = APPROVAL ( #1, 'UNSPECIFIED' ) ;
#36 = CALENDAR_DATE ( 2018, 13, 12 ) ;
#37 = VERTEX_POINT ( 'NONE', #86 ) ;
#38 = DIRECTION ( 'NONE',  ( 1.000000000000000000, -2.441384245984629900E-016, -2.109852854684000100E-016 ) ) ;
#39 = APPROVAL_ROLE ( '' ) ;
#40 = CYLINDRICAL_SURFACE ( 'NONE', #69, 12.69999999999999900 ) ;
#41 = PERSON_AND_ORGANIZATION_ROLE ( 'creator' ) ;
#42 = MANIFOLD_SOLID_BREP ( 'Imported1', #56 ) ;
#43 = APPLICATION_CONTEXT ( 'configuration controlled 3d designs of mechanical parts and assemblies' ) ;
#44 = ORIENTED_EDGE ( 'NONE', *, *, #76, .F. ) ;
#45 = LOCAL_TIME ( 16, 57, 12.00000000000000000, #14 ) ;
#46 = PERSON_AND_ORGANIZATION ( #168, #24 ) ;
#47 = DIRECTION ( 'NONE',  ( 1.000000000000000000, 0.0000000000000000000, -0.0000000000000000000 ) ) ;
#48 = PERSON_AND_ORGANIZATION ( #168, #24 ) ;
#49 = AXIS2_PLACEMENT_3D ( 'NONE', #190, #90, #184 ) ;
#50 = CARTESIAN_POINT ( 'NONE',  ( -12.77152568453127100, 12.85236318909008100, 0.3449002983308968600 ) ) ;
#51 = CARTESIAN_POINT ( 'NONE',  ( 4.996003610813200500E-016, 2.442490654175340100E-015, 0.1694168263611159900 ) ) ;
#52 = CARTESIAN_POINT ( 'NONE',  ( -8.515244903559677800, 12.85236318909007900, 0.2306415140344332500 ) ) ;
#53 = EDGE_CURVE ( 'NONE', #73, #150, #12, .T. ) ;
#54 = CARTESIAN_POINT ( 'NONE',  ( 12.77773415995071500, -4.285162168591920600, 0.1136269238676888800 ) ) ;
#55 = CALENDAR_DATE ( 2018, 13, 12 ) ;
#56 = CLOSED_SHELL ( 'NONE', ( #213, #163, #77, #15, #2 ) ) ;
#57 = FACE_OUTER_BOUND ( 'NONE', #157, .T. ) ;
#58 = ORIENTED_EDGE ( 'NONE', *, *, #133, .T. ) ;
#59 = APPROVAL_STATUS ( 'not_yet_approved' ) ;
#60 = PERSON_AND_ORGANIZATION ( #168, #24 ) ;
#61 = APPROVAL_STATUS ( 'not_yet_approved' ) ;
#62 = ORIENTED_EDGE ( 'NONE', *, *, #210, .T. ) ;
#63 = COORDINATED_UNIVERSAL_TIME_OFFSET ( 2, 0, .AHEAD. ) ;
#64 = DIRECTION ( 'NONE',  ( 1.000000000000000000, 0.0000000000000000000, 0.0000000000000000000 ) ) ;
#65 = FACE_OUTER_BOUND ( 'NONE', #123, .T. ) ;
#66 = CARTESIAN_POINT ( 'NONE',  ( 4.996003610813200500E-016, 2.442490654175340100E-015, 0.1694168263611159900 ) ) ;
#67 = DIRECTION ( 'NONE',  ( 1.000000000000000000, 0.0000000000000000000, 0.0000000000000000000 ) ) ;
#68 = DATE_AND_TIME ( #55, #5 ) ;
#69 = AXIS2_PLACEMENT_3D ( 'NONE', #51, #160, #189 ) ;
#70 = PERSON_AND_ORGANIZATION ( #168, #24 ) ;
#71 = VECTOR ( 'NONE', #221, 1000.000000000000000 ) ;
#72 = APPROVAL ( #61, 'UNSPECIFIED' ) ;
#73 = VERTEX_POINT ( 'NONE', #100 ) ;
#74 = CIRCLE ( 'NONE', #147, 12.69999999999999900 ) ;
#75 = CARTESIAN_POINT ( 'NONE',  ( 8.515244903559670700, 12.85236318909007600, 0.2306415140344708300 ) ) ;
#76 = EDGE_CURVE ( 'NONE', #87, #33, #96, .T. ) ;
#77 = ADVANCED_FACE ( 'NONE', ( #92 ), #218, .T. ) ;
#78 = PERSON_AND_ORGANIZATION_ROLE ( 'design_supplier' ) ;
#79 = DATE_AND_TIME ( #188, #139 ) ;
#80 = EDGE_CURVE ( 'NONE', #150, #9, #215, .T. ) ;
#81 = PRODUCT_DEFINITION_FORMATION_WITH_SPECIFIED_SOURCE ( 'ANY', '', #151, .NOT_KNOWN. ) ;
#82 = CARTESIAN_POINT ( 'NONE',  ( -4.257814128899822100, -12.85236318909001900, 0.1735069777521129600 ) ) ;
#83 = ORIENTED_EDGE ( 'NONE', *, *, #131, .T. ) ;
#84 = CARTESIAN_POINT ( 'NONE',  ( -8.515244903559683100, -12.85236318909001900, 0.2306415140344332500 ) ) ;
#85 = EDGE_CURVE ( 'NONE', #37, #33, #6, .T. ) ;
#86 = CARTESIAN_POINT ( 'NONE',  ( -1.035149079464328400E-013, -12.70000000000013400, 0.1694168263610922000 ) ) ;
#87 = VERTEX_POINT ( 'NONE', #27 ) ;
#88 = CARTESIAN_POINT ( 'NONE',  ( -9.941612710897720000E-014, 4.285162168591974700, -0.05784971418186789200 ) ) ;
#89 = CC_DESIGN_PERSON_AND_ORGANIZATION_ASSIGNMENT ( #60, #143, ( #187 ) ) ;
#90 = DIRECTION ( 'NONE',  ( -0.0000000000000000000, -0.0000000000000000000, -1.000000000000000000 ) ) ;
#91 = APPROVAL_DATE_TIME ( #227, #18 ) ;
#92 = FACE_OUTER_BOUND ( 'NONE', #132, .T. ) ;
#93 = CARTESIAN_POINT ( 'NONE',  ( -1.035512426936251600E-013, -12.85236318909002100, 0.1735069777521469600 ) ) ;
#94 = CARTESIAN_POINT ( 'NONE',  ( 0.0000000000000000000, 0.0000000000000000000, 0.0000000000000000000 ) ) ;
#95 =( GEOMETRIC_REPRESENTATION_CONTEXT ( 3 ) GLOBAL_UNCERTAINTY_ASSIGNED_CONTEXT ( ( #11 ) ) GLOBAL_UNIT_ASSIGNED_CONTEXT ( ( #212, #191, #17 ) ) REPRESENTATION_CONTEXT ( 'NONE', 'WORKASPACE' ) );
#96 = CIRCLE ( 'NONE', #34, 12.69999999999999900 ) ;
#97 = ORIENTED_EDGE ( 'NONE', *, *, #80, .F. ) ;
#98 = CARTESIAN_POINT ( 'NONE',  ( -9.731379196163180300E-014, 12.70000000000019300, 0.1694168263610922000 ) ) ;
#99 = ORIENTED_EDGE ( 'NONE', *, *, #85, .T. ) ;
#100 = CARTESIAN_POINT ( 'NONE',  ( 12.69999999999999900, 2.442490654175340100E-015, 0.1694168263611159900 ) ) ;
#101 = CARTESIAN_POINT ( 'NONE',  ( 4.996003610813200500E-016, 2.442490654175340100E-015, 4.000000000000000000 ) ) ;
#102 = ORIENTED_EDGE ( 'NONE', *, *, #76, .T. ) ;
#103 = APPROVAL_DATE_TIME ( #153, #35 ) ;
#104 = EDGE_LOOP ( 'NONE', ( #211, #99, #58 ) ) ;
#105 = AXIS2_PLACEMENT_3D ( 'NONE', #66, #136, #64 ) ;
#106 = CARTESIAN_POINT ( 'NONE',  ( -4.257814128899815000, 12.85236318909007900, 0.1735069777521128800 ) ) ;
#107 = CARTESIAN_POINT ( 'NONE',  ( 4.996003610813200500E-016, 2.442490654175340100E-015, 0.1694168263611159900 ) ) ;
#108 = PERSON_AND_ORGANIZATION_ROLE ( 'design_owner' ) ;
#109 = CIRCLE ( 'NONE', #49, 12.69999999999999900 ) ;
#110 = CARTESIAN_POINT ( 'NONE',  ( 12.77152568453141700, 12.85236318909007400, 0.3449002983309397700 ) ) ;
#111 = DATE_AND_TIME ( #161, #29 ) ;
#112 = DIRECTION ( 'NONE',  ( 0.0000000000000000000, 0.0000000000000000000, 1.000000000000000000 ) ) ;
#113 = APPROVAL_PERSON_ORGANIZATION ( #164, #35, #39 ) ;
#114 = CARTESIAN_POINT ( 'NONE',  ( -8.519384321979917000, -4.285162168591914300, -0.0006874037422216776200 ) ) ;
#115 = EDGE_LOOP ( 'NONE', ( #44, #62, #13, #222, #129 ) ) ;
#116 = CC_DESIGN_SECURITY_CLASSIFICATION ( #232, ( #81 ) ) ;
#117 = CARTESIAN_POINT ( 'NONE',  ( 0.0000000000000000000, 26.11199999999999800, 4.000000000000000000 ) ) ;
#118 = APPROVAL_DATE_TIME ( #111, #72 ) ;
#119 = CARTESIAN_POINT ( 'NONE',  ( -1.015084725909551500E-013, -4.285162168591917000, -0.05784971418186892600 ) ) ;
#120 = CARTESIAN_POINT ( 'NONE',  ( 8.519384321979899300, -4.285162168591919700, -0.0006874037421841098000 ) ) ;
#121 = DIRECTION ( 'NONE',  ( -0.0000000000000000000, -0.0000000000000000000, -1.000000000000000000 ) ) ;
#122 = ORIENTED_EDGE ( 'NONE', *, *, #131, .F. ) ;
#123 = EDGE_LOOP ( 'NONE', ( #199, #122, #7, #25, #219 ) ) ;
#124 = CC_DESIGN_APPROVAL ( #18, ( #232 ) ) ;
#125 = CYLINDRICAL_SURFACE ( 'NONE', #105, 12.69999999999999900 ) ;
#126 = CARTESIAN_POINT ( 'NONE',  ( -4.259883931287738800, 4.285162168591974700, -0.05784971418190201800 ) ) ;
#127 = PRODUCT_DEFINITION_SHAPE ( 'NONE', 'NONE',  #187 ) ;
#128 = SECURITY_CLASSIFICATION_LEVEL ( 'unclassified' ) ;
#129 = ORIENTED_EDGE ( 'NONE', *, *, #133, .F. ) ;
#130 = APPLICATION_PROTOCOL_DEFINITION ( 'international standard', 'config_control_design', 1994, #178 ) ;
#131 = EDGE_CURVE ( 'NONE', #37, #87, #74, .T. ) ;
#132 = EDGE_LOOP ( 'NONE', ( #186, #83, #102 ) ) ;
#133 = EDGE_CURVE ( 'NONE', #33, #73, #20, .T. ) ;
#134 = CARTESIAN_POINT ( 'NONE',  ( 12.69999999999999900, 2.442490654175340100E-015, 0.1694168263611159900 ) ) ;
#135 = DIRECTION ( 'NONE',  ( 1.000000000000000000, 0.0000000000000000000, 0.0000000000000000000 ) ) ;
#136 = DIRECTION ( 'NONE',  ( 0.0000000000000000000, 0.0000000000000000000, 1.000000000000000000 ) ) ;
#137 = CARTESIAN_POINT ( 'NONE',  ( 12.77152568453141000, -12.85236318909002400, 0.3449002983309397700 ) ) ;
#138 = DIRECTION ( 'NONE',  ( -2.441384245984629400E-016, -1.000000000000000000, 0.0000000000000000000 ) ) ;
#139 = LOCAL_TIME ( 16, 57, 12.00000000000000000, #8 ) ;
#140 = DIRECTION ( 'NONE',  ( 1.000000000000000000, 0.0000000000000000000, 0.0000000000000000000 ) ) ;
#141 = AXIS2_PLACEMENT_3D ( 'NONE', #224, #38, #138 ) ;
#142 = DIRECTION ( 'NONE',  ( 1.000000000000000000, 0.0000000000000000000, 0.0000000000000000000 ) ) ;
#143 = PERSON_AND_ORGANIZATION_ROLE ( 'creator' ) ;
#144 = CC_DESIGN_PERSON_AND_ORGANIZATION_ASSIGNMENT ( #196, #19, ( #232 ) ) ;
#145 = LINE ( 'NONE', #207, #156 ) ;
#146 = DIRECTION ( 'NONE',  ( 1.000000000000000000, 0.0000000000000000000, 0.0000000000000000000 ) ) ;
#147 = AXIS2_PLACEMENT_3D ( 'NONE', #107, #172, #142 ) ;
#148 = DATE_TIME_ROLE ( 'creation_date' ) ;
#149 = SHAPE_DEFINITION_REPRESENTATION ( #127, #195 ) ;
#150 = VERTEX_POINT ( 'NONE', #31 ) ;
#151 = PRODUCT ( '110-1245E UVFS pl-cx 25.4 F1000', '110-1245E UVFS pl-cx 25.4 F1000', '', ( #235 ) ) ;
#152 = CARTESIAN_POINT ( 'NONE',  ( -2.185751579730776900E-013, -4.285162168591917000, -0.05784971418190489000 ) ) ;
#153 = DATE_AND_TIME ( #192, #208 ) ;
#154 = CARTESIAN_POINT ( 'NONE',  ( 8.519384321979902800, 4.285162168591971200, -0.0006874037421830663700 ) ) ;
#155 = CARTESIAN_POINT ( 'NONE',  ( -9.727573129092173700E-014, 12.85236318909007700, 0.1735069777521469600 ) ) ;
#156 = VECTOR ( 'NONE', #171, 1000.000000000000000 ) ;
#157 = EDGE_LOOP ( 'NONE', ( #97, #181 ) ) ;
#158 = CC_DESIGN_APPROVAL ( #72, ( #81 ) ) ;
#159 =( BOUNDED_SURFACE ( )  B_SPLINE_SURFACE ( 3, 3, ( 
 ( #93, #32, #233, #137 ),
 ( #119, #28, #120, #54 ),
 ( #88, #176, #154, #30 ),
 ( #155, #216, #75, #110 ) ),
 .UNSPECIFIED., .F., .F., .F. ) 
 B_SPLINE_SURFACE_WITH_KNOTS ( ( 4, 4 ),
 ( 4, 4 ),
 ( 0.0000000000000000000, 1.000000000000000000 ),
 ( 0.0000000000000000000, 1.000000000000000000 ),
 .UNSPECIFIED. ) 
 GEOMETRIC_REPRESENTATION_ITEM ( )  RATIONAL_B_SPLINE_SURFACE ( (
 ( 1.000000000000000000, 0.9999399763621843500, 0.9999399763621843500, 1.000000000000000000),
 ( 0.9997570440695202600, 0.9996970350148033400, 0.9996970350148033400, 0.9997570440695202600),
 ( 0.9997570440695202600, 0.9996970350148033400, 0.9996970350148033400, 0.9997570440695202600),
 ( 1.000000000000000000, 0.9999399763621843500, 0.9999399763621843500, 1.000000000000000000) ) ) 
 REPRESENTATION_ITEM ( '' )  SURFACE ( )  );
#160 = DIRECTION ( 'NONE',  ( 0.0000000000000000000, 0.0000000000000000000, 1.000000000000000000 ) ) ;
#161 = CALENDAR_DATE ( 2018, 13, 12 ) ;
#162 = APPROVAL_ROLE ( '' ) ;
#163 = ADVANCED_FACE ( 'NONE', ( #169 ), #40, .T. ) ;
#164 = PERSON_AND_ORGANIZATION ( #168, #24 ) ;
#165 = DATE_TIME_ROLE ( 'classification_date' ) ;
#166 = APPLICATION_PROTOCOL_DEFINITION ( 'international standard', 'config_control_design', 1994, #43 ) ;
#167 = EDGE_CURVE ( 'NONE', #73, #37, #109, .T. ) ;
#168 = PERSON ( 'UNSPECIFIED', 'UNSPECIFIED', 'UNSPECIFIED', ('UNSPECIFIED'), ('UNSPECIFIED'), ('UNSPECIFIED') ) ;
#169 = FACE_OUTER_BOUND ( 'NONE', #115, .T. ) ;
#170 = CARTESIAN_POINT ( 'NONE',  ( -12.77773415995057800, -4.285162168591913500, 0.1136269238676460000 ) ) ;
#171 = DIRECTION ( 'NONE',  ( 0.0000000000000000000, 0.0000000000000000000, 1.000000000000000000 ) ) ;
#172 = DIRECTION ( 'NONE',  ( -0.0000000000000000000, -0.0000000000000000000, -1.000000000000000000 ) ) ;
#173 = DIRECTION ( 'NONE',  ( -0.0000000000000000000, -0.0000000000000000000, -1.000000000000000000 ) ) ;
#174 = CC_DESIGN_APPROVAL ( #35, ( #187 ) ) ;
#175 = APPROVAL_PERSON_ORGANIZATION ( #48, #18, #162 ) ;
#176 = CARTESIAN_POINT ( 'NONE',  ( 4.259883931287574500, 4.285162168591973000, -0.05784971418186880100 ) ) ;
#177 = DIRECTION ( 'NONE',  ( 0.0000000000000000000, 0.0000000000000000000, 1.000000000000000000 ) ) ;
#178 = APPLICATION_CONTEXT ( 'configuration controlled 3d designs of mechanical parts and assemblies' ) ;
#179 = CC_DESIGN_PERSON_AND_ORGANIZATION_ASSIGNMENT ( #70, #41, ( #81 ) ) ;
#180 = COORDINATED_UNIVERSAL_TIME_OFFSET ( 2, 0, .AHEAD. ) ;
#181 = ORIENTED_EDGE ( 'NONE', *, *, #194, .F. ) ;
#182 = DIRECTION ( 'NONE',  ( -0.0000000000000000000, -0.0000000000000000000, -1.000000000000000000 ) ) ;
#183 = CARTESIAN_POINT ( 'NONE',  ( -12.77773415995057600, 4.285162168591978300, 0.1136269238676470300 ) ) ;
#184 = DIRECTION ( 'NONE',  ( 1.000000000000000000, 0.0000000000000000000, 0.0000000000000000000 ) ) ;
#185 = COORDINATED_UNIVERSAL_TIME_OFFSET ( 2, 0, .AHEAD. ) ;
#186 = ORIENTED_EDGE ( 'NONE', *, *, #85, .F. ) ;
#187 = PRODUCT_DEFINITION ( 'UNKNOWN', '', #81, #205 ) ;
#188 = CALENDAR_DATE ( 2018, 13, 12 ) ;
#189 = DIRECTION ( 'NONE',  ( 1.000000000000000000, 0.0000000000000000000, 0.0000000000000000000 ) ) ;
#190 = CARTESIAN_POINT ( 'NONE',  ( 4.996003610813200500E-016, 2.442490654175340100E-015, 0.1694168263611159900 ) ) ;
#191 =( NAMED_UNIT ( * ) PLANE_ANGLE_UNIT ( ) SI_UNIT ( $, .RADIAN. ) );
#192 = CALENDAR_DATE ( 2018, 13, 12 ) ;
#193 = CC_DESIGN_DATE_AND_TIME_ASSIGNMENT ( #79, #148, ( #187 ) ) ;
#194 = EDGE_CURVE ( 'NONE', #9, #150, #234, .T. ) ;
#195 = ADVANCED_BREP_SHAPE_REPRESENTATION ( '110-1245E UVFS pl-cx 25.4 F1000', ( #42, #220 ), #95 ) ;
#196 = PERSON_AND_ORGANIZATION ( #168, #24 ) ;
#197 = CARTESIAN_POINT ( 'NONE',  ( -2.203098814490545000E-013, -12.85236318909002100, 0.1735069777521109900 ) ) ;
#198 = CARTESIAN_POINT ( 'NONE',  ( -12.69999999999999900, 3.997792089092478900E-015, 4.000000000000000000 ) ) ;
#199 = ORIENTED_EDGE ( 'NONE', *, *, #210, .F. ) ;
#200 = CARTESIAN_POINT ( 'NONE',  ( 4.996003610813200500E-016, 2.442490654175340100E-015, 0.1694168263611159900 ) ) ;
#201 = PLANE ( 'NONE',  #206 ) ;
#202 = CARTESIAN_POINT ( 'NONE',  ( 4.996003610813200500E-016, 2.442490654175340100E-015, 0.1694168263611159900 ) ) ;
#203 = APPROVAL_PERSON_ORGANIZATION ( #46, #72, #217 ) ;
#204 = CARTESIAN_POINT ( 'NONE',  ( 4.996003610813200500E-016, 2.442490654175340100E-015, 4.000000000000000000 ) ) ;
#205 = DESIGN_CONTEXT ( 'detailed design', #43, 'design' ) ;
#206 = AXIS2_PLACEMENT_3D ( 'NONE', #117, #112, #47 ) ;
#207 = CARTESIAN_POINT ( 'NONE',  ( -12.69999999999999900, 3.997792089092478900E-015, 0.1694168263611159900 ) ) ;
#208 = LOCAL_TIME ( 16, 57, 12.00000000000000000, #180 ) ;
#209 = CARTESIAN_POINT ( 'NONE',  ( -2.133709875451472700E-013, 12.85236318909007700, 0.1735069777521109400 ) ) ;
#210 = EDGE_CURVE ( 'NONE', #87, #9, #145, .T. ) ;
#211 = ORIENTED_EDGE ( 'NONE', *, *, #167, .T. ) ;
#212 =( LENGTH_UNIT ( ) NAMED_UNIT ( * ) SI_UNIT ( .MILLI., .METRE. ) );
#213 = ADVANCED_FACE ( 'NONE', ( #22 ), #159, .T. ) ;
#214 = CC_DESIGN_DATE_AND_TIME_ASSIGNMENT ( #68, #165, ( #232 ) ) ;
#215 = CIRCLE ( 'NONE', #4, 12.69999999999999900 ) ;
#216 = CARTESIAN_POINT ( 'NONE',  ( 4.257814128899656900, 12.85236318909007600, 0.1735069777521460700 ) ) ;
#217 = APPROVAL_ROLE ( '' ) ;
#218 =( BOUNDED_SURFACE ( )  B_SPLINE_SURFACE ( 3, 3, ( 
 ( #223, #84, #82, #197 ),
 ( #170, #114, #26, #152 ),
 ( #183, #231, #126, #225 ),
 ( #50, #52, #106, #209 ) ),
 .UNSPECIFIED., .F., .F., .F. ) 
 B_SPLINE_SURFACE_WITH_KNOTS ( ( 4, 4 ),
 ( 4, 4 ),
 ( 0.0000000000000000000, 1.000000000000000000 ),
 ( 0.0000000000000000000, 1.000000000000000000 ),
 .UNSPECIFIED. ) 
 GEOMETRIC_REPRESENTATION_ITEM ( )  RATIONAL_B_SPLINE_SURFACE ( (
 ( 1.000000000000000000, 0.9999399763621843500, 0.9999399763621843500, 1.000000000000000000),
 ( 0.9997570440695202600, 0.9996970350148033400, 0.9996970350148033400, 0.9997570440695202600),
 ( 0.9997570440695202600, 0.9996970350148033400, 0.9996970350148033400, 0.9997570440695202600),
 ( 1.000000000000000000, 0.9999399763621843500, 0.9999399763621843500, 1.000000000000000000) ) ) 
 REPRESENTATION_ITEM ( '' )  SURFACE ( )  );
#219 = ORIENTED_EDGE ( 'NONE', *, *, #80, .T. ) ;
#220 = AXIS2_PLACEMENT_3D ( 'NONE', #94, #177, #146 ) ;
#221 = DIRECTION ( 'NONE',  ( 0.0000000000000000000, 0.0000000000000000000, 1.000000000000000000 ) ) ;
#222 = ORIENTED_EDGE ( 'NONE', *, *, #53, .F. ) ;
#223 = CARTESIAN_POINT ( 'NONE',  ( -12.77152568453127800, -12.85236318909001700, 0.3449002983308968600 ) ) ;
#224 = CARTESIAN_POINT ( 'NONE',  ( 0.0000000000000000000, 5.684341886080800200E-014, 476.1000000000000200 ) ) ;
#225 = CARTESIAN_POINT ( 'NONE',  ( -2.168404344971008400E-013, 4.285162168591974700, -0.05784971418190397500 ) ) ;
#226 = PRODUCT_RELATED_PRODUCT_CATEGORY ( 'detail', '', ( #151 ) ) ;
#227 = DATE_AND_TIME ( #36, #45 ) ;
#228 = DIRECTION ( 'NONE',  ( -0.0000000000000000000, -0.0000000000000000000, -1.000000000000000000 ) ) ;
#229 = PERSON_AND_ORGANIZATION ( #168, #24 ) ;
#230 = AXIS2_PLACEMENT_3D ( 'NONE', #202, #121, #10 ) ;
#231 = CARTESIAN_POINT ( 'NONE',  ( -8.519384321979913500, 4.285162168591976500, -0.0006874037422206612900 ) ) ;
#232 = SECURITY_CLASSIFICATION ( '', '', #128 ) ;
#233 = CARTESIAN_POINT ( 'NONE',  ( 8.515244903559663600, -12.85236318909002200, 0.2306415140344708300 ) ) ;
#234 = CIRCLE ( 'NONE', #21, 12.69999999999999900 ) ;
#235 = MECHANICAL_CONTEXT ( 'NONE', #178, 'mechanical' ) ;
ENDSEC;
END-ISO-10303-21;
