ISO-10303-21;
HEADER;
FILE_DESCRIPTION (( 'STEP AP203' ),
    '1' );
FILE_NAME ('110-1240E UVFS pl-cx 25.4 F800.STEP',
    '2018-12-13T14:57:23',
    ( '' ),
    ( '' ),
    'SwSTEP 2.0',
    'SolidWorks 2017',
    '' );
FILE_SCHEMA (( 'CONFIG_CONTROL_DESIGN' ));
ENDSEC;

DATA;
#1 = FACE_OUTER_BOUND ( 'NONE', #33, .T. ) ;
#2 = CARTESIAN_POINT ( 'NONE',  ( 12.69999999999999900, 2.442490654175340100E-015, 4.000000000000000000 ) ) ;
#3 = ORIENTED_EDGE ( 'NONE', *, *, #219, .T. ) ;
#4 = DIRECTION ( 'NONE',  ( 0.0000000000000000000, 0.0000000000000000000, 1.000000000000000000 ) ) ;
#5 = COORDINATED_UNIVERSAL_TIME_OFFSET ( 2, 0, .AHEAD. ) ;
#6 = MANIFOLD_SOLID_BREP ( 'Imported1', #16 ) ;
#7 = PERSON_AND_ORGANIZATION ( #201, #152 ) ;
#8 = ORIENTED_EDGE ( 'NONE', *, *, #204, .T. ) ;
#9 = APPROVAL_ROLE ( '' ) ;
#10 = PERSON_AND_ORGANIZATION_ROLE ( 'creator' ) ;
#11 = APPROVAL_DATE_TIME ( #92, #174 ) ;
#12 = CC_DESIGN_SECURITY_CLASSIFICATION ( #155, ( #52 ) ) ;
#13 = PERSON_AND_ORGANIZATION ( #201, #152 ) ;
#14 = ORIENTED_EDGE ( 'NONE', *, *, #17, .T. ) ;
#15 = DIRECTION ( 'NONE',  ( 1.000000000000000000, 0.0000000000000000000, 0.0000000000000000000 ) ) ;
#16 = CLOSED_SHELL ( 'NONE', ( #158, #56, #175, #140, #193 ) ) ;
#17 = EDGE_CURVE ( 'NONE', #200, #117, #119, .T. ) ;
#18 = CARTESIAN_POINT ( 'NONE',  ( 4.257296970201291100, 12.85234247980858400, 0.2168938700041200500 ) ) ;
#19 = CARTESIAN_POINT ( 'NONE',  ( -12.69999999999999900, 3.997792089092478900E-015, 0.2117811121547190100 ) ) ;
#20 = DIRECTION ( 'NONE',  ( 1.000000000000000000, 0.0000000000000000000, 0.0000000000000000000 ) ) ;
#21 = CYLINDRICAL_SURFACE ( 'NONE', #91, 12.69999999999999900 ) ;
#22 = CARTESIAN_POINT ( 'NONE',  ( 2.842170943040400100E-014, 12.85234247980858800, 0.2168938700041200800 ) ) ;
#23 = DIRECTION ( 'NONE',  ( -0.0000000000000000000, -0.0000000000000000000, -1.000000000000000000 ) ) ;
#24 = VERTEX_POINT ( 'NONE', #128 ) ;
#25 = CARTESIAN_POINT ( 'NONE',  ( 12.69999999999999900, 2.442490654175340100E-015, 0.2117811121547190100 ) ) ;
#26 = CC_DESIGN_PERSON_AND_ORGANIZATION_ASSIGNMENT ( #13, #10, ( #75 ) ) ;
#27 = CARTESIAN_POINT ( 'NONE',  ( -4.260531398931351400, 4.285741097842138600, -0.07232541258586576400 ) ) ;
#28 = APPROVAL_PERSON_ORGANIZATION ( #229, #198, #9 ) ;
#29 = APPLICATION_CONTEXT ( 'configuration controlled 3d designs of mechanical parts and assemblies' ) ;
#30 = AXIS2_PLACEMENT_3D ( 'NONE', #143, #57, #20 ) ;
#31 = APPROVAL_STATUS ( 'not_yet_approved' ) ;
#32 = CC_DESIGN_APPROVAL ( #174, ( #155 ) ) ;
#33 = EDGE_LOOP ( 'NONE', ( #225, #124 ) ) ;
#34 = PERSON_AND_ORGANIZATION_ROLE ( 'design_owner' ) ;
#35 = AXIS2_PLACEMENT_3D ( 'NONE', #87, #23, #135 ) ;
#36 = CC_DESIGN_PERSON_AND_ORGANIZATION_ASSIGNMENT ( #105, #67, ( #52 ) ) ;
#37 = ORIENTED_EDGE ( 'NONE', *, *, #104, .F. ) ;
#38 = CARTESIAN_POINT ( 'NONE',  ( 12.76889642797630700, 12.85234247980858800, 0.4311016958241247200 ) ) ;
#39 = CARTESIAN_POINT ( 'NONE',  ( -12.76889642797640600, -12.85234247980851800, 0.4311016958241098400 ) ) ;
#40 = DIRECTION ( 'NONE',  ( -0.0000000000000000000, -0.0000000000000000000, -1.000000000000000000 ) ) ;
#41 = AXIS2_PLACEMENT_3D ( 'NONE', #43, #203, #146 ) ;
#42 = CARTESIAN_POINT ( 'NONE',  ( 2.842170943040400100E-014, -12.85234247980851800, 0.2168938700041200800 ) ) ;
#43 = CARTESIAN_POINT ( 'NONE',  ( 4.996003610813200500E-016, 2.442490654175340100E-015, 0.2117811121547190100 ) ) ;
#44 = PRODUCT_RELATED_PRODUCT_CATEGORY ( 'detail', '', ( #97 ) ) ;
#45 = CARTESIAN_POINT ( 'NONE',  ( -8.520463412603529500, -4.285741097842068500, -0.0008618542480783660100 ) ) ;
#46 =( LENGTH_UNIT ( ) NAMED_UNIT ( * ) SI_UNIT ( .MILLI., .METRE. ) );
#47 = DATE_AND_TIME ( #199, #188 ) ;
#48 = SECURITY_CLASSIFICATION_LEVEL ( 'unclassified' ) ;
#49 = LOCAL_TIME ( 16, 57, 23.00000000000000000, #176 ) ;
#50 = EDGE_LOOP ( 'NONE', ( #14, #132, #8 ) ) ;
#51 = AXIS2_PLACEMENT_3D ( 'NONE', #150, #153, #106 ) ;
#52 = PRODUCT_DEFINITION_FORMATION_WITH_SPECIFIED_SOURCE ( 'ANY', '', #97, .NOT_KNOWN. ) ;
#53 = PERSON_AND_ORGANIZATION ( #201, #152 ) ;
#54 = AXIS2_PLACEMENT_3D ( 'NONE', #95, #112, #15 ) ;
#55 = LOCAL_TIME ( 16, 57, 23.00000000000000000, #5 ) ;
#56 = ADVANCED_FACE ( 'NONE', ( #162 ), #68, .T. ) ;
#57 = DIRECTION ( 'NONE',  ( -0.0000000000000000000, -0.0000000000000000000, -1.000000000000000000 ) ) ;
#58 = CIRCLE ( 'NONE', #234, 12.69999999999999900 ) ;
#59 = DIRECTION ( 'NONE',  ( 1.000000000000000000, 8.881784197001252300E-016, 0.0000000000000000000 ) ) ;
#60 = DIRECTION ( 'NONE',  ( 1.000000000000000000, 0.0000000000000000000, 0.0000000000000000000 ) ) ;
#61 = CALENDAR_DATE ( 2018, 13, 12 ) ;
#62 = ORIENTED_EDGE ( 'NONE', *, *, #204, .F. ) ;
#63 = CARTESIAN_POINT ( 'NONE',  ( -4.257296970201349700, -12.85234247980851500, 0.2168938700040912700 ) ) ;
#64 = APPROVAL_DATE_TIME ( #115, #166 ) ;
#65 = CARTESIAN_POINT ( 'NONE',  ( -12.69999999999999900, 3.997792089092478900E-015, 0.2117811121547190100 ) ) ;
#66 = CARTESIAN_POINT ( 'NONE',  ( -6.418476861114186200E-014, -4.285741097842068500, -0.07232541258586781800 ) ) ;
#67 = PERSON_AND_ORGANIZATION_ROLE ( 'design_supplier' ) ;
#68 = CYLINDRICAL_SURFACE ( 'NONE', #54, 12.69999999999999900 ) ;
#69 = VERTEX_POINT ( 'NONE', #2 ) ;
#70 = UNCERTAINTY_MEASURE_WITH_UNIT (LENGTH_MEASURE( 1.000000000000000100E-005 ), #46, 'distance_accuracy_value', 'NONE');
#71 = APPROVAL_ROLE ( '' ) ;
#72 =( GEOMETRIC_REPRESENTATION_CONTEXT ( 3 ) GLOBAL_UNCERTAINTY_ASSIGNED_CONTEXT ( ( #70 ) ) GLOBAL_UNIT_ASSIGNED_CONTEXT ( ( #46, #195, #173 ) ) REPRESENTATION_CONTEXT ( 'NONE', 'WORKASPACE' ) );
#73 = DATE_AND_TIME ( #80, #202 ) ;
#74 = ORIENTED_EDGE ( 'NONE', *, *, #17, .F. ) ;
#75 = PRODUCT_DEFINITION ( 'UNKNOWN', '', #52, #141 ) ;
#76 = EDGE_LOOP ( 'NONE', ( #37, #228, #84 ) ) ;
#77 = CARTESIAN_POINT ( 'NONE',  ( 4.257296970201291100, -12.85234247980851500, 0.2168938700041200500 ) ) ;
#78 = DIRECTION ( 'NONE',  ( -0.0000000000000000000, -0.0000000000000000000, -1.000000000000000000 ) ) ;
#79 = AXIS2_PLACEMENT_3D ( 'NONE', #178, #183, #164 ) ;
#80 = CALENDAR_DATE ( 2018, 13, 12 ) ;
#81 = CARTESIAN_POINT ( 'NONE',  ( 8.520463412603449500, -4.285741097842068500, -0.0008618542480610729900 ) ) ;
#82 = AXIS2_PLACEMENT_3D ( 'NONE', #121, #4, #134 ) ;
#83 = CARTESIAN_POINT ( 'NONE',  ( -12.77859743914527100, 4.285741097842137700, 0.1420451549810578000 ) ) ;
#84 = ORIENTED_EDGE ( 'NONE', *, *, #108, .T. ) ;
#85 = ADVANCED_BREP_SHAPE_REPRESENTATION ( '110-1240E UVFS pl-cx 25.4 F800', ( #6, #51 ), #72 ) ;
#86 = EDGE_CURVE ( 'NONE', #24, #69, #58, .T. ) ;
#87 = CARTESIAN_POINT ( 'NONE',  ( 4.996003610813200500E-016, 2.442490654175340100E-015, 0.2117811121547190100 ) ) ;
#88 = CARTESIAN_POINT ( 'NONE',  ( -6.591949208711867000E-014, -12.85234247980851800, 0.2168938700040902400 ) ) ;
#89 = CIRCLE ( 'NONE', #196, 12.69999999999999900 ) ;
#90 = ORIENTED_EDGE ( 'NONE', *, *, #157, .F. ) ;
#91 = AXIS2_PLACEMENT_3D ( 'NONE', #165, #99, #131 ) ;
#92 = DATE_AND_TIME ( #93, #137 ) ;
#93 = CALENDAR_DATE ( 2018, 13, 12 ) ;
#94 = VERTEX_POINT ( 'NONE', #205 ) ;
#95 = CARTESIAN_POINT ( 'NONE',  ( 4.996003610813200500E-016, 2.442490654175340100E-015, 0.2117811121547190100 ) ) ;
#96 = CC_DESIGN_APPROVAL ( #198, ( #52 ) ) ;
#97 = PRODUCT ( '110-1240E UVFS pl-cx 25.4 F800', '110-1240E UVFS pl-cx 25.4 F800', '', ( #171 ) ) ;
#98 = CIRCLE ( 'NONE', #118, 12.69999999999999900 ) ;
#99 = DIRECTION ( 'NONE',  ( 0.0000000000000000000, 0.0000000000000000000, 1.000000000000000000 ) ) ;
#100 = CARTESIAN_POINT ( 'NONE',  ( 4.996003610813200500E-016, 2.442490654175340100E-015, 4.000000000000000000 ) ) ;
#101 = CARTESIAN_POINT ( 'NONE',  ( 12.77859743914517300, -4.285741097842068500, 0.1420451549810716500 ) ) ;
#102 = VECTOR ( 'NONE', #187, 1000.000000000000000 ) ;
#103 = EDGE_LOOP ( 'NONE', ( #180, #3, #111, #192, #62 ) ) ;
#104 = EDGE_CURVE ( 'NONE', #117, #94, #127, .T. ) ;
#105 = PERSON_AND_ORGANIZATION ( #201, #152 ) ;
#106 = DIRECTION ( 'NONE',  ( 1.000000000000000000, 0.0000000000000000000, 0.0000000000000000000 ) ) ;
#107 = DATE_AND_TIME ( #160, #55 ) ;
#108 = EDGE_CURVE ( 'NONE', #172, #94, #98, .T. ) ;
#109 = PERSON_AND_ORGANIZATION_ROLE ( 'creator' ) ;
#110 = APPLICATION_PROTOCOL_DEFINITION ( 'international standard', 'config_control_design', 1994, #123 ) ;
#111 = ORIENTED_EDGE ( 'NONE', *, *, #86, .T. ) ;
#112 = DIRECTION ( 'NONE',  ( 0.0000000000000000000, 0.0000000000000000000, 1.000000000000000000 ) ) ;
#113 = SHAPE_DEFINITION_REPRESENTATION ( #232, #85 ) ;
#114 = CARTESIAN_POINT ( 'NONE',  ( 2.842170943040401400E-014, 4.285741097842137700, -0.07232541258583694000 ) ) ;
#115 = DATE_AND_TIME ( #61, #49 ) ;
#116 = CARTESIAN_POINT ( 'NONE',  ( 8.520463412603449500, 4.285741097842138600, -0.0008618542480600431100 ) ) ;
#117 = VERTEX_POINT ( 'NONE', #129 ) ;
#118 = AXIS2_PLACEMENT_3D ( 'NONE', #147, #130, #59 ) ;
#119 = CIRCLE ( 'NONE', #30, 12.69999999999999900 ) ;
#120 = CARTESIAN_POINT ( 'NONE',  ( -12.77859743914527100, -4.285741097842068500, 0.1420451549810567700 ) ) ;
#121 = CARTESIAN_POINT ( 'NONE',  ( 0.0000000000000000000, 26.11199999999999800, 4.000000000000000000 ) ) ;
#122 = ORIENTED_EDGE ( 'NONE', *, *, #219, .F. ) ;
#123 = APPLICATION_CONTEXT ( 'configuration controlled 3d designs of mechanical parts and assemblies' ) ;
#124 = ORIENTED_EDGE ( 'NONE', *, *, #86, .F. ) ;
#125 = COORDINATED_UNIVERSAL_TIME_OFFSET ( 2, 0, .AHEAD. ) ;
#126 =( BOUNDED_SURFACE ( )  B_SPLINE_SURFACE ( 3, 3, ( 
 ( #39, #163, #63, #88 ),
 ( #120, #45, #185, #66 ),
 ( #83, #168, #27, #186 ),
 ( #169, #208, #220, #222 ) ),
 .UNSPECIFIED., .F., .F., .F. ) 
 B_SPLINE_SURFACE_WITH_KNOTS ( ( 4, 4 ),
 ( 4, 4 ),
 ( 0.0000000000000000000, 1.000000000000000000 ),
 ( 0.0000000000000000000, 1.000000000000000000 ),
 .UNSPECIFIED. ) 
 GEOMETRIC_REPRESENTATION_ITEM ( )  RATIONAL_B_SPLINE_SURFACE ( (
 ( 1.000000000000000000, 0.9999062111893272100, 0.9999062111893272100, 1.000000000000000000),
 ( 0.9996203835302282000, 0.9995266303233326700, 0.9995266303233326700, 0.9996203835302282000),
 ( 0.9996203835302282000, 0.9995266303233326700, 0.9995266303233326700, 0.9996203835302282000),
 ( 1.000000000000000000, 0.9999062111893272100, 0.9999062111893272100, 1.000000000000000000) ) ) 
 REPRESENTATION_ITEM ( '' )  SURFACE ( )  );
#127 = CIRCLE ( 'NONE', #79, 380.8999999999999800 ) ;
#128 = CARTESIAN_POINT ( 'NONE',  ( -12.69999999999999900, 3.997792089092478900E-015, 4.000000000000000000 ) ) ;
#129 = CARTESIAN_POINT ( 'NONE',  ( 2.842170943040400100E-014, -12.69999999999958900, 0.2117811121547354700 ) ) ;
#130 = DIRECTION ( 'NONE',  ( -0.0000000000000000000, -0.0000000000000000000, -1.000000000000000000 ) ) ;
#131 = DIRECTION ( 'NONE',  ( 1.000000000000000000, 0.0000000000000000000, 0.0000000000000000000 ) ) ;
#132 = ORIENTED_EDGE ( 'NONE', *, *, #104, .T. ) ;
#133 = EDGE_CURVE ( 'NONE', #69, #24, #89, .T. ) ;
#134 = DIRECTION ( 'NONE',  ( 1.000000000000000000, 0.0000000000000000000, -0.0000000000000000000 ) ) ;
#135 = DIRECTION ( 'NONE',  ( 1.000000000000000000, -1.776356839400250500E-015, 0.0000000000000000000 ) ) ;
#136 = CC_DESIGN_PERSON_AND_ORGANIZATION_ASSIGNMENT ( #206, #109, ( #52 ) ) ;
#137 = LOCAL_TIME ( 16, 57, 23.00000000000000000, #139 ) ;
#138 = DATE_TIME_ROLE ( 'classification_date' ) ;
#139 = COORDINATED_UNIVERSAL_TIME_OFFSET ( 2, 0, .AHEAD. ) ;
#140 = ADVANCED_FACE ( 'NONE', ( #144 ), #21, .T. ) ;
#141 = DESIGN_CONTEXT ( 'detailed design', #123, 'design' ) ;
#142 = EDGE_LOOP ( 'NONE', ( #122, #90, #74, #167, #212 ) ) ;
#143 = CARTESIAN_POINT ( 'NONE',  ( 4.996003610813200500E-016, 2.442490654175340100E-015, 0.2117811121547190100 ) ) ;
#144 = FACE_OUTER_BOUND ( 'NONE', #142, .T. ) ;
#145 = CARTESIAN_POINT ( 'NONE',  ( 8.513995010173276900, 12.85234247980858400, 0.2883031760046664300 ) ) ;
#146 = DIRECTION ( 'NONE',  ( 1.000000000000000000, 0.0000000000000000000, 0.0000000000000000000 ) ) ;
#147 = CARTESIAN_POINT ( 'NONE',  ( 4.996003610813200500E-016, 2.442490654175340100E-015, 0.2117811121547190100 ) ) ;
#148 = CC_DESIGN_PERSON_AND_ORGANIZATION_ASSIGNMENT ( #53, #34, ( #97 ) ) ;
#149 = CARTESIAN_POINT ( 'NONE',  ( 4.996003610813200500E-016, 2.442490654175340100E-015, 4.000000000000000000 ) ) ;
#150 = CARTESIAN_POINT ( 'NONE',  ( 0.0000000000000000000, 0.0000000000000000000, 0.0000000000000000000 ) ) ;
#151 = DIRECTION ( 'NONE',  ( 0.0000000000000000000, 0.0000000000000000000, 1.000000000000000000 ) ) ;
#152 = ORGANIZATION ( 'UNSPECIFIED', 'UNSPECIFIED', '' ) ;
#153 = DIRECTION ( 'NONE',  ( 0.0000000000000000000, 0.0000000000000000000, 1.000000000000000000 ) ) ;
#154 = FACE_OUTER_BOUND ( 'NONE', #76, .T. ) ;
#155 = SECURITY_CLASSIFICATION ( '', '', #48 ) ;
#156 =( BOUNDED_SURFACE ( )  B_SPLINE_SURFACE ( 3, 3, ( 
 ( #42, #77, #233, #218 ),
 ( #182, #215, #81, #101 ),
 ( #114, #230, #116, #235 ),
 ( #22, #18, #145, #38 ) ),
 .UNSPECIFIED., .F., .F., .F. ) 
 B_SPLINE_SURFACE_WITH_KNOTS ( ( 4, 4 ),
 ( 4, 4 ),
 ( 0.0000000000000000000, 1.000000000000000000 ),
 ( 0.0000000000000000000, 1.000000000000000000 ),
 .UNSPECIFIED. ) 
 GEOMETRIC_REPRESENTATION_ITEM ( )  RATIONAL_B_SPLINE_SURFACE ( (
 ( 1.000000000000000000, 0.9999062111893272100, 0.9999062111893272100, 1.000000000000000000),
 ( 0.9996203835302282000, 0.9995266303233326700, 0.9995266303233326700, 0.9996203835302282000),
 ( 0.9996203835302282000, 0.9995266303233326700, 0.9995266303233326700, 0.9996203835302282000),
 ( 1.000000000000000000, 0.9999062111893272100, 0.9999062111893272100, 1.000000000000000000) ) ) 
 REPRESENTATION_ITEM ( '' )  SURFACE ( )  );
#157 = EDGE_CURVE ( 'NONE', #117, #172, #207, .T. ) ;
#158 = ADVANCED_FACE ( 'NONE', ( #184 ), #156, .T. ) ;
#159 = VECTOR ( 'NONE', #151, 1000.000000000000000 ) ;
#160 = CALENDAR_DATE ( 2018, 13, 12 ) ;
#161 = CC_DESIGN_DATE_AND_TIME_ASSIGNMENT ( #47, #138, ( #155 ) ) ;
#162 = FACE_OUTER_BOUND ( 'NONE', #103, .T. ) ;
#163 = CARTESIAN_POINT ( 'NONE',  ( -8.513995010173355000, -12.85234247980851500, 0.2883031760046492200 ) ) ;
#164 = DIRECTION ( 'NONE',  ( 0.0000000000000000000, -1.000000000000000000, 0.0000000000000000000 ) ) ;
#165 = CARTESIAN_POINT ( 'NONE',  ( 4.996003610813200500E-016, 2.442490654175340100E-015, 0.2117811121547190100 ) ) ;
#166 = APPROVAL ( #210, 'UNSPECIFIED' ) ;
#167 = ORIENTED_EDGE ( 'NONE', *, *, #213, .T. ) ;
#168 = CARTESIAN_POINT ( 'NONE',  ( -8.520463412603529500, 4.285741097842138600, -0.0008618542480773360200 ) ) ;
#169 = CARTESIAN_POINT ( 'NONE',  ( -12.76889642797640600, 12.85234247980858800, 0.4311016958241098400 ) ) ;
#170 = APPROVAL_PERSON_ORGANIZATION ( #217, #166, #71 ) ;
#171 = MECHANICAL_CONTEXT ( 'NONE', #29, 'mechanical' ) ;
#172 = VERTEX_POINT ( 'NONE', #19 ) ;
#173 =( NAMED_UNIT ( * ) SI_UNIT ( $, .STERADIAN. ) SOLID_ANGLE_UNIT ( ) );
#174 = APPROVAL ( #190, 'UNSPECIFIED' ) ;
#175 = ADVANCED_FACE ( 'NONE', ( #154 ), #126, .T. ) ;
#176 = COORDINATED_UNIVERSAL_TIME_OFFSET ( 2, 0, .AHEAD. ) ;
#177 = CC_DESIGN_DATE_AND_TIME_ASSIGNMENT ( #73, #194, ( #75 ) ) ;
#178 = CARTESIAN_POINT ( 'NONE',  ( 2.842170943040400100E-014, 5.684341886080800200E-014, 380.8999999999999800 ) ) ;
#179 = APPROVAL_PERSON_ORGANIZATION ( #227, #174, #226 ) ;
#180 = ORIENTED_EDGE ( 'NONE', *, *, #108, .F. ) ;
#181 = DIRECTION ( 'NONE',  ( 1.000000000000000000, 0.0000000000000000000, 0.0000000000000000000 ) ) ;
#182 = CARTESIAN_POINT ( 'NONE',  ( 2.842170943040401400E-014, -4.285741097842068500, -0.07232541258583798100 ) ) ;
#183 = DIRECTION ( 'NONE',  ( 1.000000000000000000, 0.0000000000000000000, 0.0000000000000000000 ) ) ;
#184 = FACE_OUTER_BOUND ( 'NONE', #50, .T. ) ;
#185 = CARTESIAN_POINT ( 'NONE',  ( -4.260531398931351400, -4.285741097842068500, -0.07232541258586679100 ) ) ;
#186 = CARTESIAN_POINT ( 'NONE',  ( -6.418476861114186200E-014, 4.285741097842137700, -0.07232541258586679100 ) ) ;
#187 = DIRECTION ( 'NONE',  ( 0.0000000000000000000, 0.0000000000000000000, 1.000000000000000000 ) ) ;
#188 = LOCAL_TIME ( 16, 57, 23.00000000000000000, #231 ) ;
#189 = PERSON_AND_ORGANIZATION_ROLE ( 'classification_officer' ) ;
#190 = APPROVAL_STATUS ( 'not_yet_approved' ) ;
#191 = CIRCLE ( 'NONE', #35, 12.69999999999999900 ) ;
#192 = ORIENTED_EDGE ( 'NONE', *, *, #213, .F. ) ;
#193 = ADVANCED_FACE ( 'NONE', ( #1 ), #223, .T. ) ;
#194 = DATE_TIME_ROLE ( 'creation_date' ) ;
#195 =( NAMED_UNIT ( * ) PLANE_ANGLE_UNIT ( ) SI_UNIT ( $, .RADIAN. ) );
#196 = AXIS2_PLACEMENT_3D ( 'NONE', #149, #40, #60 ) ;
#197 = APPROVAL_DATE_TIME ( #107, #198 ) ;
#198 = APPROVAL ( #31, 'UNSPECIFIED' ) ;
#199 = CALENDAR_DATE ( 2018, 13, 12 ) ;
#200 = VERTEX_POINT ( 'NONE', #216 ) ;
#201 = PERSON ( 'UNSPECIFIED', 'UNSPECIFIED', 'UNSPECIFIED', ('UNSPECIFIED'), ('UNSPECIFIED'), ('UNSPECIFIED') ) ;
#202 = LOCAL_TIME ( 16, 57, 23.00000000000000000, #125 ) ;
#203 = DIRECTION ( 'NONE',  ( -0.0000000000000000000, -0.0000000000000000000, -1.000000000000000000 ) ) ;
#204 = EDGE_CURVE ( 'NONE', #94, #200, #191, .T. ) ;
#205 = CARTESIAN_POINT ( 'NONE',  ( 2.842170943040400100E-014, 12.69999999999964800, 0.2117811121547354700 ) ) ;
#206 = PERSON_AND_ORGANIZATION ( #201, #152 ) ;
#207 = CIRCLE ( 'NONE', #41, 12.69999999999999900 ) ;
#208 = CARTESIAN_POINT ( 'NONE',  ( -8.513995010173355000, 12.85234247980858400, 0.2883031760046492200 ) ) ;
#209 = LINE ( 'NONE', #25, #159 ) ;
#210 = APPROVAL_STATUS ( 'not_yet_approved' ) ;
#211 = APPLICATION_PROTOCOL_DEFINITION ( 'international standard', 'config_control_design', 1994, #29 ) ;
#212 = ORIENTED_EDGE ( 'NONE', *, *, #133, .T. ) ;
#213 = EDGE_CURVE ( 'NONE', #200, #69, #209, .T. ) ;
#214 = CC_DESIGN_APPROVAL ( #166, ( #75 ) ) ;
#215 = CARTESIAN_POINT ( 'NONE',  ( 4.260531398931294500, -4.285741097842068500, -0.07232541258583798100 ) ) ;
#216 = CARTESIAN_POINT ( 'NONE',  ( 12.69999999999999900, 2.442490654175340100E-015, 0.2117811121547190100 ) ) ;
#217 = PERSON_AND_ORGANIZATION ( #201, #152 ) ;
#218 = CARTESIAN_POINT ( 'NONE',  ( 12.76889642797630700, -12.85234247980851800, 0.4311016958241247200 ) ) ;
#219 = EDGE_CURVE ( 'NONE', #172, #24, #224, .T. ) ;
#220 = CARTESIAN_POINT ( 'NONE',  ( -4.257296970201349700, 12.85234247980858400, 0.2168938700040912700 ) ) ;
#221 = CC_DESIGN_PERSON_AND_ORGANIZATION_ASSIGNMENT ( #7, #189, ( #155 ) ) ;
#222 = CARTESIAN_POINT ( 'NONE',  ( -6.591949208711867000E-014, 12.85234247980858800, 0.2168938700040902400 ) ) ;
#223 = PLANE ( 'NONE',  #82 ) ;
#224 = LINE ( 'NONE', #65, #102 ) ;
#225 = ORIENTED_EDGE ( 'NONE', *, *, #133, .F. ) ;
#226 = APPROVAL_ROLE ( '' ) ;
#227 = PERSON_AND_ORGANIZATION ( #201, #152 ) ;
#228 = ORIENTED_EDGE ( 'NONE', *, *, #157, .T. ) ;
#229 = PERSON_AND_ORGANIZATION ( #201, #152 ) ;
#230 = CARTESIAN_POINT ( 'NONE',  ( 4.260531398931294500, 4.285741097842138600, -0.07232541258583695400 ) ) ;
#231 = COORDINATED_UNIVERSAL_TIME_OFFSET ( 2, 0, .AHEAD. ) ;
#232 = PRODUCT_DEFINITION_SHAPE ( 'NONE', 'NONE',  #75 ) ;
#233 = CARTESIAN_POINT ( 'NONE',  ( 8.513995010173276900, -12.85234247980851500, 0.2883031760046664300 ) ) ;
#234 = AXIS2_PLACEMENT_3D ( 'NONE', #100, #78, #181 ) ;
#235 = CARTESIAN_POINT ( 'NONE',  ( 12.77859743914517300, 4.285741097842137700, 0.1420451549810726700 ) ) ;
ENDSEC;
END-ISO-10303-21;
