ISO-10303-21;
HEADER;
FILE_DESCRIPTION (( 'STEP AP203' ),
    '1' );
FILE_NAME ('110-1239E UVFS pl-cx 25.4 F750.STEP',
    '2018-12-13T14:57:48',
    ( '' ),
    ( '' ),
    'SwSTEP 2.0',
    'SolidWorks 2017',
    '' );
FILE_SCHEMA (( 'CONFIG_CONTROL_DESIGN' ));
ENDSEC;

DATA;
#1 = DATE_TIME_ROLE ( 'classification_date' ) ;
#2 = CIRCLE ( 'NONE', #98, 12.69999999999999900 ) ;
#3 = APPROVAL_STATUS ( 'not_yet_approved' ) ;
#4 = APPLICATION_CONTEXT ( 'configuration controlled 3d designs of mechanical parts and assemblies' ) ;
#5 = VECTOR ( 'NONE', #140, 1000.000000000000000 ) ;
#6 = AXIS2_PLACEMENT_3D ( 'NONE', #84, #135, #85 ) ;
#7 = EDGE_CURVE ( 'NONE', #32, #197, #58, .T. ) ;
#8 = PERSON_AND_ORGANIZATION ( #96, #149 ) ;
#9 = CARTESIAN_POINT ( 'NONE',  ( 8.513516606510235000, -12.85233455309655600, 0.3075247100037424300 ) ) ;
#10 = CARTESIAN_POINT ( 'NONE',  ( 12.76789013489976000, -12.85233455309655200, 0.4598333361223979100 ) ) ;
#11 = APPROVAL_PERSON_ORGANIZATION ( #119, #225, #93 ) ;
#12 = CC_DESIGN_SECURITY_CLASSIFICATION ( #43, ( #201 ) ) ;
#13 = CARTESIAN_POINT ( 'NONE',  ( 4.260779254663185100, -4.285962712770932500, -0.07715272554285120000 ) ) ;
#14 = DIRECTION ( 'NONE',  ( 1.000000000000000000, 0.0000000000000000000, 0.0000000000000000000 ) ) ;
#15 = CARTESIAN_POINT ( 'NONE',  ( -4.260779254663411600, -4.285962712770932500, -0.07715272554291137400 ) ) ;
#16 = CARTESIAN_POINT ( 'NONE',  ( 12.69999999999999900, 2.442490654175340100E-015, 0.2259045545614279900 ) ) ;
#17 = CALENDAR_DATE ( 2018, 13, 12 ) ;
#18 = CARTESIAN_POINT ( 'NONE',  ( -4.257099016543203400, -12.85233455309655600, 0.2313582051018901500 ) ) ;
#19 = CC_DESIGN_DATE_AND_TIME_ASSIGNMENT ( #92, #56, ( #204 ) ) ;
#20 = EDGE_CURVE ( 'NONE', #130, #100, #207, .T. ) ;
#21 =( BOUNDED_SURFACE ( )  B_SPLINE_SURFACE ( 3, 3, ( 
 ( #172, #122, #9, #10 ),
 ( #137, #13, #156, #28 ),
 ( #48, #46, #226, #173 ),
 ( #175, #103, #159, #123 ) ),
 .UNSPECIFIED., .F., .F., .F. ) 
 B_SPLINE_SURFACE_WITH_KNOTS ( ( 4, 4 ),
 ( 4, 4 ),
 ( 0.0000000000000000000, 1.000000000000000000 ),
 ( 0.0000000000000000000, 1.000000000000000000 ),
 .UNSPECIFIED. ) 
 GEOMETRIC_REPRESENTATION_ITEM ( )  RATIONAL_B_SPLINE_SURFACE ( (
 ( 1.000000000000000000, 0.9998932878041871800, 0.9998932878041871800, 1.000000000000000000),
 ( 0.9995680795200186900, 0.9994614134153887400, 0.9994614134153887400, 0.9995680795200186900),
 ( 0.9995680795200186900, 0.9994614134153887400, 0.9994614134153887400, 0.9995680795200186900),
 ( 1.000000000000000000, 0.9998932878041871800, 0.9998932878041871800, 1.000000000000000000) ) ) 
 REPRESENTATION_ITEM ( '' )  SURFACE ( )  );
#22 = ORIENTED_EDGE ( 'NONE', *, *, #120, .F. ) ;
#23 = PERSON_AND_ORGANIZATION ( #96, #149 ) ;
#24 = ORIENTED_EDGE ( 'NONE', *, *, #78, .T. ) ;
#25 = ORIENTED_EDGE ( 'NONE', *, *, #26, .F. ) ;
#26 = EDGE_CURVE ( 'NONE', #35, #130, #167, .T. ) ;
#27 = MANIFOLD_SOLID_BREP ( 'Imported1', #104 ) ;
#28 = CARTESIAN_POINT ( 'NONE',  ( 12.77892790400179600, -4.285962712770930800, 0.1515199209413978800 ) ) ;
#29 = DIRECTION ( 'NONE',  ( 0.0000000000000000000, 0.0000000000000000000, 1.000000000000000000 ) ) ;
#30 = DIRECTION ( 'NONE',  ( 1.000000000000000000, 0.0000000000000000000, 0.0000000000000000000 ) ) ;
#31 = AXIS2_PLACEMENT_3D ( 'NONE', #211, #82, #105 ) ;
#32 = VERTEX_POINT ( 'NONE', #155 ) ;
#33 = CARTESIAN_POINT ( 'NONE',  ( -4.257099016543204300, 12.85233455309656000, 0.2313582051018346100 ) ) ;
#34 = DIRECTION ( 'NONE',  ( 1.000000000000000000, 8.881784197001252300E-016, 0.0000000000000000000 ) ) ;
#35 = VERTEX_POINT ( 'NONE', #45 ) ;
#36 = PERSON_AND_ORGANIZATION_ROLE ( 'creator' ) ;
#37 = CC_DESIGN_APPROVAL ( #220, ( #201 ) ) ;
#38 = APPROVAL_STATUS ( 'not_yet_approved' ) ;
#39 = ORIENTED_EDGE ( 'NONE', *, *, #64, .F. ) ;
#40 = CALENDAR_DATE ( 2018, 13, 12 ) ;
#41 = CC_DESIGN_APPROVAL ( #225, ( #204 ) ) ;
#42 = VERTEX_POINT ( 'NONE', #65 ) ;
#43 = SECURITY_CLASSIFICATION ( '', '', #200 ) ;
#44 = ORIENTED_EDGE ( 'NONE', *, *, #68, .F. ) ;
#45 = CARTESIAN_POINT ( 'NONE',  ( -12.69999999999999900, 3.997792089092478900E-015, 0.2259045545614279900 ) ) ;
#46 = CARTESIAN_POINT ( 'NONE',  ( 4.260779254663186000, 4.285962712770934300, -0.07715272554290678000 ) ) ;
#47 = FACE_OUTER_BOUND ( 'NONE', #86, .T. ) ;
#48 = CARTESIAN_POINT ( 'NONE',  ( -5.684341886080800900E-014, 4.285962712770932500, -0.07715272554290675300 ) ) ;
#49 = CC_DESIGN_PERSON_AND_ORGANIZATION_ASSIGNMENT ( #209, #182, ( #201 ) ) ;
#50 = DIRECTION ( 'NONE',  ( 0.0000000000000000000, -1.000000000000000000, -6.217995097312553600E-016 ) ) ;
#51 = ADVANCED_FACE ( 'NONE', ( #47 ), #21, .T. ) ;
#52 = DIRECTION ( 'NONE',  ( 1.000000000000000000, 0.0000000000000000000, 0.0000000000000000000 ) ) ;
#53 = PERSON_AND_ORGANIZATION ( #96, #149 ) ;
#54 = ADVANCED_FACE ( 'NONE', ( #138 ), #139, .T. ) ;
#55 = CARTESIAN_POINT ( 'NONE',  ( 4.996003610813200500E-016, 2.442490654175340100E-015, 0.2259045545614279900 ) ) ;
#56 = DATE_TIME_ROLE ( 'creation_date' ) ;
#57 = CC_DESIGN_PERSON_AND_ORGANIZATION_ASSIGNMENT ( #23, #36, ( #204 ) ) ;
#58 = CIRCLE ( 'NONE', #6, 12.69999999999999900 ) ;
#59 = APPROVAL_ROLE ( '' ) ;
#60 = APPROVAL_DATE_TIME ( #83, #169 ) ;
#61 = PERSON_AND_ORGANIZATION_ROLE ( 'design_owner' ) ;
#62 = AXIS2_PLACEMENT_3D ( 'NONE', #67, #223, #127 ) ;
#63 = ORIENTED_EDGE ( 'NONE', *, *, #7, .F. ) ;
#64 = EDGE_CURVE ( 'NONE', #100, #130, #185, .T. ) ;
#65 = CARTESIAN_POINT ( 'NONE',  ( -5.684341886080800200E-014, 12.70000000000071000, 0.2259045545614674100 ) ) ;
#66 = ORIENTED_EDGE ( 'NONE', *, *, #68, .T. ) ;
#67 = CARTESIAN_POINT ( 'NONE',  ( 0.0000000000000000000, 26.11199999999999800, 4.000000000000000000 ) ) ;
#68 = EDGE_CURVE ( 'NONE', #32, #100, #134, .T. ) ;
#69 = DIRECTION ( 'NONE',  ( 1.000000000000000000, 0.0000000000000000000, 0.0000000000000000000 ) ) ;
#70 = CIRCLE ( 'NONE', #131, 12.69999999999999900 ) ;
#71 = CARTESIAN_POINT ( 'NONE',  ( 4.996003610813200500E-016, 2.442490654175340100E-015, 0.2259045545614279900 ) ) ;
#72 = DIRECTION ( 'NONE',  ( 1.000000000000000000, 0.0000000000000000000, 0.0000000000000000000 ) ) ;
#73 = AXIS2_PLACEMENT_3D ( 'NONE', #124, #14, #50 ) ;
#74 = DIRECTION ( 'NONE',  ( -0.0000000000000000000, -0.0000000000000000000, -1.000000000000000000 ) ) ;
#75 =( NAMED_UNIT ( * ) PLANE_ANGLE_UNIT ( ) SI_UNIT ( $, .RADIAN. ) );
#76 = CC_DESIGN_DATE_AND_TIME_ASSIGNMENT ( #153, #1, ( #43 ) ) ;
#77 = PRODUCT ( '110-1239E UVFS pl-cx 25.4 F750', '110-1239E UVFS pl-cx 25.4 F750', '', ( #115 ) ) ;
#78 = EDGE_CURVE ( 'NONE', #197, #42, #118, .T. ) ;
#79 = ORIENTED_EDGE ( 'NONE', *, *, #101, .F. ) ;
#80 = APPROVAL_DATE_TIME ( #199, #220 ) ;
#81 = AXIS2_PLACEMENT_3D ( 'NONE', #55, #193, #30 ) ;
#82 = DIRECTION ( 'NONE',  ( -0.0000000000000000000, -0.0000000000000000000, -1.000000000000000000 ) ) ;
#83 = DATE_AND_TIME ( #203, #99 ) ;
#84 = CARTESIAN_POINT ( 'NONE',  ( 4.996003610813200500E-016, 2.442490654175340100E-015, 0.2259045545614279900 ) ) ;
#85 = DIRECTION ( 'NONE',  ( 1.000000000000000000, 0.0000000000000000000, 0.0000000000000000000 ) ) ;
#86 = EDGE_LOOP ( 'NONE', ( #212, #24, #231 ) ) ;
#87 = CC_DESIGN_APPROVAL ( #169, ( #43 ) ) ;
#88 = CARTESIAN_POINT ( 'NONE',  ( -8.520876493661475600, -4.285962712770932500, -0.0009203751266337877300 ) ) ;
#89 = CC_DESIGN_PERSON_AND_ORGANIZATION_ASSIGNMENT ( #53, #166, ( #201 ) ) ;
#90 = CARTESIAN_POINT ( 'NONE',  ( -8.513516606510489000, -12.85233455309655600, 0.3075247100037145100 ) ) ;
#91 = EDGE_LOOP ( 'NONE', ( #25, #22, #63, #66, #221 ) ) ;
#92 = DATE_AND_TIME ( #40, #186 ) ;
#93 = APPROVAL_ROLE ( '' ) ;
#94 = AXIS2_PLACEMENT_3D ( 'NONE', #71, #235, #72 ) ;
#95 = APPLICATION_PROTOCOL_DEFINITION ( 'international standard', 'config_control_design', 1994, #97 ) ;
#96 = PERSON ( 'UNSPECIFIED', 'UNSPECIFIED', 'UNSPECIFIED', ('UNSPECIFIED'), ('UNSPECIFIED'), ('UNSPECIFIED') ) ;
#97 = APPLICATION_CONTEXT ( 'configuration controlled 3d designs of mechanical parts and assemblies' ) ;
#98 = AXIS2_PLACEMENT_3D ( 'NONE', #126, #74, #34 ) ;
#99 = LOCAL_TIME ( 16, 57, 48.00000000000000000, #110 ) ;
#100 = VERTEX_POINT ( 'NONE', #177 ) ;
#101 = EDGE_CURVE ( 'NONE', #35, #42, #190, .T. ) ;
#102 = APPROVAL_DATE_TIME ( #234, #225 ) ;
#103 = CARTESIAN_POINT ( 'NONE',  ( 4.257099016542977000, 12.85233455309656000, 0.2313582051018947500 ) ) ;
#104 = CLOSED_SHELL ( 'NONE', ( #51, #216, #111, #108, #54 ) ) ;
#105 = DIRECTION ( 'NONE',  ( 1.000000000000000000, 0.0000000000000000000, 0.0000000000000000000 ) ) ;
#106 = APPROVAL_PERSON_ORGANIZATION ( #8, #169, #59 ) ;
#107 = AXIS2_PLACEMENT_3D ( 'NONE', #176, #160, #233 ) ;
#108 = ADVANCED_FACE ( 'NONE', ( #170 ), #163, .T. ) ;
#109 = CARTESIAN_POINT ( 'NONE',  ( 4.996003610813200500E-016, 2.442490654175340100E-015, 0.2259045545614279900 ) ) ;
#110 = COORDINATED_UNIVERSAL_TIME_OFFSET ( 2, 0, .AHEAD. ) ;
#111 = ADVANCED_FACE ( 'NONE', ( #125 ), #142, .T. ) ;
#112 = CARTESIAN_POINT ( 'NONE',  ( -8.520876493661475600, 4.285962712770934300, -0.0009203751266893800900 ) ) ;
#113 = ORIENTED_EDGE ( 'NONE', *, *, #20, .F. ) ;
#114 = PERSON_AND_ORGANIZATION ( #96, #149 ) ;
#115 = MECHANICAL_CONTEXT ( 'NONE', #97, 'mechanical' ) ;
#116 =( LENGTH_UNIT ( ) NAMED_UNIT ( * ) SI_UNIT ( .MILLI., .METRE. ) );
#117 =( NAMED_UNIT ( * ) SI_UNIT ( $, .STERADIAN. ) SOLID_ANGLE_UNIT ( ) );
#118 = CIRCLE ( 'NONE', #73, 357.1000000000000200 ) ;
#119 = PERSON_AND_ORGANIZATION ( #96, #149 ) ;
#120 = EDGE_CURVE ( 'NONE', #197, #35, #70, .T. ) ;
#121 = VECTOR ( 'NONE', #196, 1000.000000000000000 ) ;
#122 = CARTESIAN_POINT ( 'NONE',  ( 4.257099016542976100, -12.85233455309655600, 0.2313582051019502700 ) ) ;
#123 = CARTESIAN_POINT ( 'NONE',  ( 12.76789013489976400, 12.85233455309655600, 0.4598333361223424000 ) ) ;
#124 = CARTESIAN_POINT ( 'NONE',  ( -5.684341886080800200E-014, 0.0000000000000000000, 357.1000000000000200 ) ) ;
#125 = FACE_OUTER_BOUND ( 'NONE', #132, .T. ) ;
#126 = CARTESIAN_POINT ( 'NONE',  ( 4.996003610813200500E-016, 2.442490654175340100E-015, 0.2259045545614279900 ) ) ;
#127 = DIRECTION ( 'NONE',  ( 1.000000000000000000, 0.0000000000000000000, -0.0000000000000000000 ) ) ;
#128 = COORDINATED_UNIVERSAL_TIME_OFFSET ( 2, 0, .AHEAD. ) ;
#129 = APPROVAL_STATUS ( 'not_yet_approved' ) ;
#130 = VERTEX_POINT ( 'NONE', #214 ) ;
#131 = AXIS2_PLACEMENT_3D ( 'NONE', #180, #161, #69 ) ;
#132 = EDGE_LOOP ( 'NONE', ( #152, #183, #157 ) ) ;
#133 = COORDINATED_UNIVERSAL_TIME_OFFSET ( 2, 0, .AHEAD. ) ;
#134 = LINE ( 'NONE', #16, #121 ) ;
#135 = DIRECTION ( 'NONE',  ( -0.0000000000000000000, -0.0000000000000000000, -1.000000000000000000 ) ) ;
#136 = COORDINATED_UNIVERSAL_TIME_OFFSET ( 2, 0, .AHEAD. ) ;
#137 = CARTESIAN_POINT ( 'NONE',  ( -5.684341886080800900E-014, -4.285962712770930800, -0.07715272554285118600 ) ) ;
#138 = FACE_OUTER_BOUND ( 'NONE', #171, .T. ) ;
#139 = PLANE ( 'NONE',  #62 ) ;
#140 = DIRECTION ( 'NONE',  ( 0.0000000000000000000, 0.0000000000000000000, 1.000000000000000000 ) ) ;
#141 = CALENDAR_DATE ( 2018, 13, 12 ) ;
#142 =( BOUNDED_SURFACE ( )  B_SPLINE_SURFACE ( 3, 3, ( 
 ( #191, #90, #18, #143 ),
 ( #192, #88, #15, #230 ),
 ( #145, #112, #164, #215 ),
 ( #213, #195, #33, #179 ) ),
 .UNSPECIFIED., .F., .F., .T. ) 
 B_SPLINE_SURFACE_WITH_KNOTS ( ( 4, 4 ),
 ( 4, 4 ),
 ( 0.0000000000000000000, 1.000000000000000000 ),
 ( 0.0000000000000000000, 1.000000000000000000 ),
 .UNSPECIFIED. ) 
 GEOMETRIC_REPRESENTATION_ITEM ( )  RATIONAL_B_SPLINE_SURFACE ( (
 ( 1.000000000000000000, 0.9998932878041871800, 0.9998932878041871800, 1.000000000000000000),
 ( 0.9995680795200186900, 0.9994614134153887400, 0.9994614134153887400, 0.9995680795200186900),
 ( 0.9995680795200186900, 0.9994614134153887400, 0.9994614134153887400, 0.9995680795200186900),
 ( 1.000000000000000000, 0.9998932878041871800, 0.9998932878041871800, 1.000000000000000000) ) ) 
 REPRESENTATION_ITEM ( '' )  SURFACE ( )  );
#143 = CARTESIAN_POINT ( 'NONE',  ( -1.439820485060749900E-013, -12.85233455309655200, 0.2313582051018891200 ) ) ;
#144 = AXIS2_PLACEMENT_3D ( 'NONE', #217, #198, #150 ) ;
#145 = CARTESIAN_POINT ( 'NONE',  ( -12.77892790400207400, 4.285962712770932500, 0.1515199209413171400 ) ) ;
#146 = DESIGN_CONTEXT ( 'detailed design', #4, 'design' ) ;
#147 = FACE_OUTER_BOUND ( 'NONE', #178, .T. ) ;
#148 = APPLICATION_PROTOCOL_DEFINITION ( 'international standard', 'config_control_design', 1994, #4 ) ;
#149 = ORGANIZATION ( 'UNSPECIFIED', 'UNSPECIFIED', '' ) ;
#150 = DIRECTION ( 'NONE',  ( 1.000000000000000000, 0.0000000000000000000, 0.0000000000000000000 ) ) ;
#151 = PRODUCT_DEFINITION_SHAPE ( 'NONE', 'NONE',  #204 ) ;
#152 = ORIENTED_EDGE ( 'NONE', *, *, #78, .F. ) ;
#153 = DATE_AND_TIME ( #141, #165 ) ;
#154 =( GEOMETRIC_REPRESENTATION_CONTEXT ( 3 ) GLOBAL_UNCERTAINTY_ASSIGNED_CONTEXT ( ( #232 ) ) GLOBAL_UNIT_ASSIGNED_CONTEXT ( ( #116, #75, #117 ) ) REPRESENTATION_CONTEXT ( 'NONE', 'WORKASPACE' ) );
#155 = CARTESIAN_POINT ( 'NONE',  ( 12.69999999999999900, 2.442490654175340100E-015, 0.2259045545614279900 ) ) ;
#156 = CARTESIAN_POINT ( 'NONE',  ( 8.520876493661219800, -4.285962712770932500, -0.0009203751266058152100 ) ) ;
#157 = ORIENTED_EDGE ( 'NONE', *, *, #101, .T. ) ;
#158 = PERSON_AND_ORGANIZATION ( #96, #149 ) ;
#159 = CARTESIAN_POINT ( 'NONE',  ( 8.513516606510238600, 12.85233455309656000, 0.3075247100036869200 ) ) ;
#160 = DIRECTION ( 'NONE',  ( -0.0000000000000000000, -0.0000000000000000000, -1.000000000000000000 ) ) ;
#161 = DIRECTION ( 'NONE',  ( -0.0000000000000000000, -0.0000000000000000000, -1.000000000000000000 ) ) ;
#162 = CARTESIAN_POINT ( 'NONE',  ( -5.684341886080800200E-014, -12.70000000000071000, 0.2259045545614674100 ) ) ;
#163 = CYLINDRICAL_SURFACE ( 'NONE', #81, 12.69999999999999900 ) ;
#164 = CARTESIAN_POINT ( 'NONE',  ( -4.260779254663412500, 4.285962712770934300, -0.07715272554296701000 ) ) ;
#165 = LOCAL_TIME ( 16, 57, 48.00000000000000000, #133 ) ;
#166 = PERSON_AND_ORGANIZATION_ROLE ( 'design_supplier' ) ;
#167 = LINE ( 'NONE', #208, #5 ) ;
#168 = APPROVAL_ROLE ( '' ) ;
#169 = APPROVAL ( #129, 'UNSPECIFIED' ) ;
#170 = FACE_OUTER_BOUND ( 'NONE', #91, .T. ) ;
#171 = EDGE_LOOP ( 'NONE', ( #39, #113 ) ) ;
#172 = CARTESIAN_POINT ( 'NONE',  ( -5.684341886080800200E-014, -12.85233455309655200, 0.2313582051019502700 ) ) ;
#173 = CARTESIAN_POINT ( 'NONE',  ( 12.77892790400179700, 4.285962712770932500, 0.1515199209413423400 ) ) ;
#174 = SHAPE_DEFINITION_REPRESENTATION ( #151, #188 ) ;
#175 = CARTESIAN_POINT ( 'NONE',  ( -5.684341886080800200E-014, 12.85233455309655600, 0.2313582051018947500 ) ) ;
#176 = CARTESIAN_POINT ( 'NONE',  ( 4.996003610813200500E-016, 2.442490654175340100E-015, 4.000000000000000000 ) ) ;
#177 = CARTESIAN_POINT ( 'NONE',  ( 12.69999999999999900, 2.442490654175340100E-015, 4.000000000000000000 ) ) ;
#178 = EDGE_LOOP ( 'NONE', ( #79, #219, #227, #44, #205 ) ) ;
#179 = CARTESIAN_POINT ( 'NONE',  ( -1.439820485060749900E-013, 12.85233455309655600, 0.2313582051018336100 ) ) ;
#180 = CARTESIAN_POINT ( 'NONE',  ( 4.996003610813200500E-016, 2.442490654175340100E-015, 0.2259045545614279900 ) ) ;
#181 = CALENDAR_DATE ( 2018, 13, 12 ) ;
#182 = PERSON_AND_ORGANIZATION_ROLE ( 'creator' ) ;
#183 = ORIENTED_EDGE ( 'NONE', *, *, #120, .T. ) ;
#184 = PERSON_AND_ORGANIZATION_ROLE ( 'classification_officer' ) ;
#185 = CIRCLE ( 'NONE', #107, 12.69999999999999900 ) ;
#186 = LOCAL_TIME ( 16, 57, 48.00000000000000000, #206 ) ;
#187 = LOCAL_TIME ( 16, 57, 48.00000000000000000, #136 ) ;
#188 = ADVANCED_BREP_SHAPE_REPRESENTATION ( '110-1239E UVFS pl-cx 25.4 F750', ( #27, #144 ), #154 ) ;
#189 = CC_DESIGN_PERSON_AND_ORGANIZATION_ASSIGNMENT ( #114, #61, ( #77 ) ) ;
#190 = CIRCLE ( 'NONE', #94, 12.69999999999999900 ) ;
#191 = CARTESIAN_POINT ( 'NONE',  ( -12.76789013490003700, -12.85233455309655200, 0.4598333361223727600 ) ) ;
#192 = CARTESIAN_POINT ( 'NONE',  ( -12.77892790400207300, -4.285962712770930800, 0.1515199209413727000 ) ) ;
#193 = DIRECTION ( 'NONE',  ( 0.0000000000000000000, 0.0000000000000000000, 1.000000000000000000 ) ) ;
#194 = EDGE_CURVE ( 'NONE', #42, #32, #2, .T. ) ;
#195 = CARTESIAN_POINT ( 'NONE',  ( -8.513516606510490800, 12.85233455309656000, 0.3075247100036589400 ) ) ;
#196 = DIRECTION ( 'NONE',  ( 0.0000000000000000000, 0.0000000000000000000, 1.000000000000000000 ) ) ;
#197 = VERTEX_POINT ( 'NONE', #162 ) ;
#198 = DIRECTION ( 'NONE',  ( 0.0000000000000000000, 0.0000000000000000000, 1.000000000000000000 ) ) ;
#199 = DATE_AND_TIME ( #181, #229 ) ;
#200 = SECURITY_CLASSIFICATION_LEVEL ( 'unclassified' ) ;
#201 = PRODUCT_DEFINITION_FORMATION_WITH_SPECIFIED_SOURCE ( 'ANY', '', #77, .NOT_KNOWN. ) ;
#202 = CYLINDRICAL_SURFACE ( 'NONE', #228, 12.69999999999999900 ) ;
#203 = CALENDAR_DATE ( 2018, 13, 12 ) ;
#204 = PRODUCT_DEFINITION ( 'UNKNOWN', '', #201, #146 ) ;
#205 = ORIENTED_EDGE ( 'NONE', *, *, #194, .F. ) ;
#206 = COORDINATED_UNIVERSAL_TIME_OFFSET ( 2, 0, .AHEAD. ) ;
#207 = CIRCLE ( 'NONE', #31, 12.69999999999999900 ) ;
#208 = CARTESIAN_POINT ( 'NONE',  ( -12.69999999999999900, 3.997792089092478900E-015, 0.2259045545614279900 ) ) ;
#209 = PERSON_AND_ORGANIZATION ( #96, #149 ) ;
#210 = CC_DESIGN_PERSON_AND_ORGANIZATION_ASSIGNMENT ( #218, #184, ( #43 ) ) ;
#211 = CARTESIAN_POINT ( 'NONE',  ( 4.996003610813200500E-016, 2.442490654175340100E-015, 4.000000000000000000 ) ) ;
#212 = ORIENTED_EDGE ( 'NONE', *, *, #7, .T. ) ;
#213 = CARTESIAN_POINT ( 'NONE',  ( -12.76789013490003900, 12.85233455309655600, 0.4598333361223172500 ) ) ;
#214 = CARTESIAN_POINT ( 'NONE',  ( -12.69999999999999900, 3.997792089092478900E-015, 4.000000000000000000 ) ) ;
#215 = CARTESIAN_POINT ( 'NONE',  ( -1.439820485060749600E-013, 4.285962712770932500, -0.07715272554296803700 ) ) ;
#216 = ADVANCED_FACE ( 'NONE', ( #147 ), #202, .T. ) ;
#217 = CARTESIAN_POINT ( 'NONE',  ( 0.0000000000000000000, 0.0000000000000000000, 0.0000000000000000000 ) ) ;
#218 = PERSON_AND_ORGANIZATION ( #96, #149 ) ;
#219 = ORIENTED_EDGE ( 'NONE', *, *, #26, .T. ) ;
#220 = APPROVAL ( #3, 'UNSPECIFIED' ) ;
#221 = ORIENTED_EDGE ( 'NONE', *, *, #64, .T. ) ;
#222 = PRODUCT_RELATED_PRODUCT_CATEGORY ( 'detail', '', ( #77 ) ) ;
#223 = DIRECTION ( 'NONE',  ( 0.0000000000000000000, 0.0000000000000000000, 1.000000000000000000 ) ) ;
#224 = APPROVAL_PERSON_ORGANIZATION ( #158, #220, #168 ) ;
#225 = APPROVAL ( #38, 'UNSPECIFIED' ) ;
#226 = CARTESIAN_POINT ( 'NONE',  ( 8.520876493661219800, 4.285962712770934300, -0.0009203751266613536800 ) ) ;
#227 = ORIENTED_EDGE ( 'NONE', *, *, #20, .T. ) ;
#228 = AXIS2_PLACEMENT_3D ( 'NONE', #109, #29, #52 ) ;
#229 = LOCAL_TIME ( 16, 57, 48.00000000000000000, #128 ) ;
#230 = CARTESIAN_POINT ( 'NONE',  ( -1.439820485060749600E-013, -4.285962712770930800, -0.07715272554291238700 ) ) ;
#231 = ORIENTED_EDGE ( 'NONE', *, *, #194, .T. ) ;
#232 = UNCERTAINTY_MEASURE_WITH_UNIT (LENGTH_MEASURE( 1.000000000000000100E-005 ), #116, 'distance_accuracy_value', 'NONE');
#233 = DIRECTION ( 'NONE',  ( 1.000000000000000000, 0.0000000000000000000, 0.0000000000000000000 ) ) ;
#234 = DATE_AND_TIME ( #17, #187 ) ;
#235 = DIRECTION ( 'NONE',  ( -0.0000000000000000000, -0.0000000000000000000, -1.000000000000000000 ) ) ;
ENDSEC;
END-ISO-10303-21;
