ISO-10303-21;
HEADER;
FILE_DESCRIPTION (( 'STEP AP203' ),
    '1' );
FILE_NAME ('110-1238E UVFS pl-cx 25.4 F700.STEP',
    '2018-12-13T14:58:01',
    ( '' ),
    ( '' ),
    'SwSTEP 2.0',
    'SolidWorks 2017',
    '' );
FILE_SCHEMA (( 'CONFIG_CONTROL_DESIGN' ));
ENDSEC;

DATA;
#1 = ADVANCED_FACE ( 'NONE', ( #208 ), #5, .T. ) ;
#2 = PERSON_AND_ORGANIZATION_ROLE ( 'creator' ) ;
#3 = DATE_TIME_ROLE ( 'classification_date' ) ;
#4 = CC_DESIGN_PERSON_AND_ORGANIZATION_ASSIGNMENT ( #127, #2, ( #211 ) ) ;
#5 = CYLINDRICAL_SURFACE ( 'NONE', #98, 12.69999999999999900 ) ;
#6 = APPLICATION_PROTOCOL_DEFINITION ( 'international standard', 'config_control_design', 1994, #205 ) ;
#7 = APPROVAL_ROLE ( '' ) ;
#8 = CC_DESIGN_SECURITY_CLASSIFICATION ( #190, ( #211 ) ) ;
#9 = ORIENTED_EDGE ( 'NONE', *, *, #182, .F. ) ;
#10 = EDGE_CURVE ( 'NONE', #63, #146, #136, .T. ) ;
#11 = LOCAL_TIME ( 16, 58, 1.000000000000000000, #207 ) ;
#12 = CARTESIAN_POINT ( 'NONE',  ( 2.842170943040400100E-014, -12.85232486701974100, 0.2478903452005076800 ) ) ;
#13 = DIRECTION ( 'NONE',  ( 0.0000000000000000000, 0.0000000000000000000, 1.000000000000000000 ) ) ;
#14 = CIRCLE ( 'NONE', #36, 12.69999999999999900 ) ;
#15 = CARTESIAN_POINT ( 'NONE',  ( 2.842170943040400100E-014, -4.286233533351403200, -0.08267110590387763400 ) ) ;
#16 = CARTESIAN_POINT ( 'NONE',  ( 4.996003610813200500E-016, 2.442490654175340100E-015, 4.000000000000000000 ) ) ;
#17 = DIRECTION ( 'NONE',  ( 1.000000000000000000, 0.0000000000000000000, 0.0000000000000000000 ) ) ;
#18 = CALENDAR_DATE ( 2018, 13, 12 ) ;
#19 = FACE_OUTER_BOUND ( 'NONE', #135, .T. ) ;
#20 = DIRECTION ( 'NONE',  ( -0.0000000000000000000, -0.0000000000000000000, -1.000000000000000000 ) ) ;
#21 = CARTESIAN_POINT ( 'NONE',  ( -12.76666055514892200, -12.85232486701974100, 0.4926681640228802700 ) ) ;
#22 = APPROVAL_STATUS ( 'not_yet_approved' ) ;
#23 = APPROVAL_PERSON_ORGANIZATION ( #29, #78, #115 ) ;
#24 = VECTOR ( 'NONE', #108, 1000.000000000000000 ) ;
#25 = APPROVAL_PERSON_ORGANIZATION ( #62, #109, #224 ) ;
#26 = AXIS2_PLACEMENT_3D ( 'NONE', #66, #217, #106 ) ;
#27 = APPROVAL_DATE_TIME ( #84, #109 ) ;
#28 = ORIENTED_EDGE ( 'NONE', *, *, #130, .F. ) ;
#29 = PERSON_AND_ORGANIZATION ( #42, #212 ) ;
#30 = ORIENTED_EDGE ( 'NONE', *, *, #188, .F. ) ;
#31 = CARTESIAN_POINT ( 'NONE',  ( 12.76666055514890100, -12.85232486701974100, 0.4926681640228722200 ) ) ;
#32 = CARTESIAN_POINT ( 'NONE',  ( -12.69999999999999900, 3.997792089092478900E-015, 0.2420470848954479900 ) ) ;
#33 = CARTESIAN_POINT ( 'NONE',  ( 8.512932024872135600, 12.85232486701973400, 0.3294929480797324500 ) ) ;
#34 = CARTESIAN_POINT ( 'NONE',  ( -12.76666055514892200, 12.85232486701973400, 0.4926681640228802700 ) ) ;
#35 = CARTESIAN_POINT ( 'NONE',  ( 4.996003610813200500E-016, 2.442490654175340100E-015, 0.2420470848954479900 ) ) ;
#36 = AXIS2_PLACEMENT_3D ( 'NONE', #54, #20, #88 ) ;
#37 = DIRECTION ( 'NONE',  ( 1.000000000000000000, 0.0000000000000000000, -0.0000000000000000000 ) ) ;
#38 =( BOUNDED_SURFACE ( )  B_SPLINE_SURFACE ( 3, 3, ( 
 ( #21, #178, #143, #199 ),
 ( #232, #55, #233, #71 ),
 ( #204, #156, #179, #124 ),
 ( #34, #161, #218, #159 ) ),
 .UNSPECIFIED., .F., .F., .F. ) 
 B_SPLINE_SURFACE_WITH_KNOTS ( ( 4, 4 ),
 ( 4, 4 ),
 ( 0.0000000000000000000, 1.000000000000000000 ),
 ( 0.0000000000000000000, 1.000000000000000000 ),
 .UNSPECIFIED. ) 
 GEOMETRIC_REPRESENTATION_ITEM ( )  RATIONAL_B_SPLINE_SURFACE ( (
 ( 1.000000000000000000, 0.9998774964920911200, 0.9998774964920911200, 1.000000000000000000),
 ( 0.9995041697265716300, 0.9993817269596105800, 0.9993817269596105800, 0.9995041697265716300),
 ( 0.9995041697265716300, 0.9993817269596105800, 0.9993817269596105800, 0.9995041697265716300),
 ( 1.000000000000000000, 0.9998774964920911200, 0.9998774964920911200, 1.000000000000000000) ) ) 
 REPRESENTATION_ITEM ( '' )  SURFACE ( )  );
#39 = DIRECTION ( 'NONE',  ( -0.0000000000000000000, -0.0000000000000000000, -1.000000000000000000 ) ) ;
#40 = CLOSED_SHELL ( 'NONE', ( #60, #1, #219, #221, #197 ) ) ;
#41 = SECURITY_CLASSIFICATION_LEVEL ( 'unclassified' ) ;
#42 = PERSON ( 'UNSPECIFIED', 'UNSPECIFIED', 'UNSPECIFIED', ('UNSPECIFIED'), ('UNSPECIFIED'), ('UNSPECIFIED') ) ;
#43 = CC_DESIGN_DATE_AND_TIME_ASSIGNMENT ( #177, #3, ( #190 ) ) ;
#44 = CYLINDRICAL_SURFACE ( 'NONE', #48, 12.69999999999999900 ) ;
#45 = DESIGN_CONTEXT ( 'detailed design', #149, 'design' ) ;
#46 = PERSON_AND_ORGANIZATION ( #42, #212 ) ;
#47 = VERTEX_POINT ( 'NONE', #214 ) ;
#48 = AXIS2_PLACEMENT_3D ( 'NONE', #90, #220, #17 ) ;
#49 = FACE_OUTER_BOUND ( 'NONE', #59, .T. ) ;
#50 = CARTESIAN_POINT ( 'NONE',  ( 8.521381294766303700, 4.286233533351395200, -0.0009875106692863540200 ) ) ;
#51 = CARTESIAN_POINT ( 'NONE',  ( 2.842170943040400100E-014, -5.684341886080800200E-014, 333.3000000000000700 ) ) ;
#52 = DIRECTION ( 'NONE',  ( 0.0000000000000000000, -1.000000000000000000, 3.331002174092878400E-016 ) ) ;
#53 = ORIENTED_EDGE ( 'NONE', *, *, #73, .F. ) ;
#54 = CARTESIAN_POINT ( 'NONE',  ( 4.996003610813200500E-016, 2.442490654175340100E-015, 4.000000000000000000 ) ) ;
#55 = CARTESIAN_POINT ( 'NONE',  ( -8.521381294766325000, -4.286233533351401400, -0.0009875106692764335700 ) ) ;
#56 = DIRECTION ( 'NONE',  ( 1.000000000000000000, 0.0000000000000000000, 0.0000000000000000000 ) ) ;
#57 = DATE_AND_TIME ( #65, #92 ) ;
#58 = CC_DESIGN_APPROVAL ( #109, ( #211 ) ) ;
#59 = EDGE_LOOP ( 'NONE', ( #183, #9 ) ) ;
#60 = ADVANCED_FACE ( 'NONE', ( #19 ), #89, .T. ) ;
#61 = CC_DESIGN_PERSON_AND_ORGANIZATION_ASSIGNMENT ( #118, #163, ( #97 ) ) ;
#62 = PERSON_AND_ORGANIZATION ( #42, #212 ) ;
#63 = VERTEX_POINT ( 'NONE', #195 ) ;
#64 = CARTESIAN_POINT ( 'NONE',  ( 2.842170943040400100E-014, 12.85232486701973400, 0.2478903452005076800 ) ) ;
#65 = CALENDAR_DATE ( 2018, 13, 12 ) ;
#66 = CARTESIAN_POINT ( 'NONE',  ( 4.996003610813200500E-016, 2.442490654175340100E-015, 0.2420470848954479900 ) ) ;
#67 = PRODUCT_DEFINITION ( 'UNKNOWN', '', #211, #45 ) ;
#68 = CARTESIAN_POINT ( 'NONE',  ( 2.842170943040400100E-014, 12.69999999999986400, 0.2420470848954197600 ) ) ;
#69 = CARTESIAN_POINT ( 'NONE',  ( -12.69999999999999900, 3.997792089092478900E-015, 0.2420470848954479900 ) ) ;
#70 = CALENDAR_DATE ( 2018, 13, 12 ) ;
#71 = CARTESIAN_POINT ( 'NONE',  ( -5.377642775528102600E-014, -4.286233533351403200, -0.08267110590388412900 ) ) ;
#72 = MANIFOLD_SOLID_BREP ( 'Imported1', #40 ) ;
#73 = EDGE_CURVE ( 'NONE', #139, #146, #164, .T. ) ;
#74 = DIRECTION ( 'NONE',  ( 1.000000000000000000, 0.0000000000000000000, 0.0000000000000000000 ) ) ;
#75 =( LENGTH_UNIT ( ) NAMED_UNIT ( * ) SI_UNIT ( .MILLI., .METRE. ) );
#76 = PERSON_AND_ORGANIZATION_ROLE ( 'creator' ) ;
#77 = COORDINATED_UNIVERSAL_TIME_OFFSET ( 2, 0, .AHEAD. ) ;
#78 = APPROVAL ( #22, 'UNSPECIFIED' ) ;
#79 = ADVANCED_BREP_SHAPE_REPRESENTATION ( '110-1238E UVFS pl-cx 25.4 F700', ( #72, #167 ), #120 ) ;
#80 = ORIENTED_EDGE ( 'NONE', *, *, #112, .T. ) ;
#81 = APPROVAL ( #131, 'UNSPECIFIED' ) ;
#82 = PRODUCT_DEFINITION_SHAPE ( 'NONE', 'NONE',  #67 ) ;
#83 = CARTESIAN_POINT ( 'NONE',  ( 8.512932024872135600, -12.85232486701974100, 0.3294929480797324500 ) ) ;
#84 = DATE_AND_TIME ( #70, #99 ) ;
#85 = ORIENTED_EDGE ( 'NONE', *, *, #10, .T. ) ;
#86 = CARTESIAN_POINT ( 'NONE',  ( 4.256857122383702400, -12.85232486701974100, 0.2478903452005076800 ) ) ;
#87 = CARTESIAN_POINT ( 'NONE',  ( 12.76666055514890100, 12.85232486701973400, 0.4926681640228722200 ) ) ;
#88 = DIRECTION ( 'NONE',  ( 1.000000000000000000, 0.0000000000000000000, 0.0000000000000000000 ) ) ;
#89 =( BOUNDED_SURFACE ( )  B_SPLINE_SURFACE ( 3, 3, ( 
 ( #12, #86, #83, #31 ),
 ( #15, #153, #104, #154 ),
 ( #174, #193, #50, #172 ),
 ( #64, #140, #33, #87 ) ),
 .UNSPECIFIED., .F., .F., .F. ) 
 B_SPLINE_SURFACE_WITH_KNOTS ( ( 4, 4 ),
 ( 4, 4 ),
 ( 0.0000000000000000000, 1.000000000000000000 ),
 ( 0.0000000000000000000, 1.000000000000000000 ),
 .UNSPECIFIED. ) 
 GEOMETRIC_REPRESENTATION_ITEM ( )  RATIONAL_B_SPLINE_SURFACE ( (
 ( 1.000000000000000000, 0.9998774964920911200, 0.9998774964920911200, 1.000000000000000000),
 ( 0.9995041697265716300, 0.9993817269596105800, 0.9993817269596105800, 0.9995041697265716300),
 ( 0.9995041697265716300, 0.9993817269596105800, 0.9993817269596105800, 0.9995041697265716300),
 ( 1.000000000000000000, 0.9998774964920911200, 0.9998774964920911200, 1.000000000000000000) ) ) 
 REPRESENTATION_ITEM ( '' )  SURFACE ( )  );
#90 = CARTESIAN_POINT ( 'NONE',  ( 4.996003610813200500E-016, 2.442490654175340100E-015, 0.2420470848954479900 ) ) ;
#91 = PLANE ( 'NONE',  #194 ) ;
#92 = LOCAL_TIME ( 16, 58, 1.000000000000000000, #144 ) ;
#93 = APPLICATION_PROTOCOL_DEFINITION ( 'international standard', 'config_control_design', 1994, #149 ) ;
#94 =( NAMED_UNIT ( * ) PLANE_ANGLE_UNIT ( ) SI_UNIT ( $, .RADIAN. ) );
#95 = CC_DESIGN_APPROVAL ( #81, ( #67 ) ) ;
#96 = EDGE_LOOP ( 'NONE', ( #103, #222, #101, #100, #80 ) ) ;
#97 = PRODUCT ( '110-1238E UVFS pl-cx 25.4 F700', '110-1238E UVFS pl-cx 25.4 F700', '', ( #184 ) ) ;
#98 = AXIS2_PLACEMENT_3D ( 'NONE', #137, #13, #196 ) ;
#99 = LOCAL_TIME ( 16, 58, 1.000000000000000000, #102 ) ;
#100 = ORIENTED_EDGE ( 'NONE', *, *, #188, .T. ) ;
#101 = ORIENTED_EDGE ( 'NONE', *, *, #201, .F. ) ;
#102 = COORDINATED_UNIVERSAL_TIME_OFFSET ( 2, 0, .AHEAD. ) ;
#103 = ORIENTED_EDGE ( 'NONE', *, *, #226, .F. ) ;
#104 = CARTESIAN_POINT ( 'NONE',  ( 8.521381294766303700, -4.286233533351401400, -0.0009875106692835890900 ) ) ;
#105 = ORIENTED_EDGE ( 'NONE', *, *, #130, .T. ) ;
#106 = DIRECTION ( 'NONE',  ( 1.000000000000000000, 8.881784197001252300E-016, 0.0000000000000000000 ) ) ;
#107 = AXIS2_PLACEMENT_3D ( 'NONE', #202, #110, #113 ) ;
#108 = DIRECTION ( 'NONE',  ( 0.0000000000000000000, 0.0000000000000000000, 1.000000000000000000 ) ) ;
#109 = APPROVAL ( #166, 'UNSPECIFIED' ) ;
#110 = DIRECTION ( 'NONE',  ( -0.0000000000000000000, -0.0000000000000000000, -1.000000000000000000 ) ) ;
#111 = DIRECTION ( 'NONE',  ( -0.0000000000000000000, -0.0000000000000000000, -1.000000000000000000 ) ) ;
#112 = EDGE_CURVE ( 'NONE', #191, #151, #14, .T. ) ;
#113 = DIRECTION ( 'NONE',  ( 1.000000000000000000, -1.776356839400250500E-015, 0.0000000000000000000 ) ) ;
#114 = CALENDAR_DATE ( 2018, 13, 12 ) ;
#115 = APPROVAL_ROLE ( '' ) ;
#116 = DIRECTION ( 'NONE',  ( 0.0000000000000000000, 0.0000000000000000000, 1.000000000000000000 ) ) ;
#117 = APPROVAL_PERSON_ORGANIZATION ( #138, #81, #7 ) ;
#118 = PERSON_AND_ORGANIZATION ( #42, #212 ) ;
#119 = LINE ( 'NONE', #200, #24 ) ;
#120 =( GEOMETRIC_REPRESENTATION_CONTEXT ( 3 ) GLOBAL_UNCERTAINTY_ASSIGNED_CONTEXT ( ( #180 ) ) GLOBAL_UNIT_ASSIGNED_CONTEXT ( ( #75, #94, #129 ) ) REPRESENTATION_CONTEXT ( 'NONE', 'WORKASPACE' ) );
#121 = CC_DESIGN_PERSON_AND_ORGANIZATION_ASSIGNMENT ( #227, #132, ( #211 ) ) ;
#122 = AXIS2_PLACEMENT_3D ( 'NONE', #16, #125, #74 ) ;
#123 = FACE_OUTER_BOUND ( 'NONE', #170, .T. ) ;
#124 = CARTESIAN_POINT ( 'NONE',  ( -5.551115123125782700E-014, 4.286233533351396100, -0.08267110590388705700 ) ) ;
#125 = DIRECTION ( 'NONE',  ( -0.0000000000000000000, -0.0000000000000000000, -1.000000000000000000 ) ) ;
#126 = CARTESIAN_POINT ( 'NONE',  ( 12.69999999999999900, 2.442490654175340100E-015, 4.000000000000000000 ) ) ;
#127 = PERSON_AND_ORGANIZATION ( #42, #212 ) ;
#128 = EDGE_LOOP ( 'NONE', ( #53, #189, #203, #30, #28 ) ) ;
#129 =( NAMED_UNIT ( * ) SI_UNIT ( $, .STERADIAN. ) SOLID_ANGLE_UNIT ( ) );
#130 = EDGE_CURVE ( 'NONE', #146, #47, #228, .T. ) ;
#131 = APPROVAL_STATUS ( 'not_yet_approved' ) ;
#132 = PERSON_AND_ORGANIZATION_ROLE ( 'design_supplier' ) ;
#133 = AXIS2_PLACEMENT_3D ( 'NONE', #35, #39, #56 ) ;
#134 = DATE_AND_TIME ( #209, #169 ) ;
#135 = EDGE_LOOP ( 'NONE', ( #198, #85, #105 ) ) ;
#136 = CIRCLE ( 'NONE', #230, 333.3000000000000700 ) ;
#137 = CARTESIAN_POINT ( 'NONE',  ( 4.996003610813200500E-016, 2.442490654175340100E-015, 0.2420470848954479900 ) ) ;
#138 = PERSON_AND_ORGANIZATION ( #42, #212 ) ;
#139 = VERTEX_POINT ( 'NONE', #32 ) ;
#140 = CARTESIAN_POINT ( 'NONE',  ( 4.256857122383702400, 12.85232486701973400, 0.2478903452005076800 ) ) ;
#141 = AXIS2_PLACEMENT_3D ( 'NONE', #147, #111, #160 ) ;
#142 = CIRCLE ( 'NONE', #122, 12.69999999999999900 ) ;
#143 = CARTESIAN_POINT ( 'NONE',  ( -4.256857122383726400, -12.85232486701974100, 0.2478903452005021500 ) ) ;
#144 = COORDINATED_UNIVERSAL_TIME_OFFSET ( 2, 0, .AHEAD. ) ;
#145 = CARTESIAN_POINT ( 'NONE',  ( 0.0000000000000000000, 0.0000000000000000000, 0.0000000000000000000 ) ) ;
#146 = VERTEX_POINT ( 'NONE', #68 ) ;
#147 = CARTESIAN_POINT ( 'NONE',  ( 4.996003610813200500E-016, 2.442490654175340100E-015, 0.2420470848954479900 ) ) ;
#148 = PERSON_AND_ORGANIZATION_ROLE ( 'classification_officer' ) ;
#149 = APPLICATION_CONTEXT ( 'configuration controlled 3d designs of mechanical parts and assemblies' ) ;
#150 = VECTOR ( 'NONE', #157, 1000.000000000000000 ) ;
#151 = VERTEX_POINT ( 'NONE', #235 ) ;
#152 = ORIENTED_EDGE ( 'NONE', *, *, #213, .T. ) ;
#153 = CARTESIAN_POINT ( 'NONE',  ( 4.261082145515902500, -4.286233533351401400, -0.08267110590387763400 ) ) ;
#154 = CARTESIAN_POINT ( 'NONE',  ( 12.77933174297966300, -4.286233533351403200, 0.1623496602190519200 ) ) ;
#155 = SHAPE_DEFINITION_REPRESENTATION ( #82, #79 ) ;
#156 = CARTESIAN_POINT ( 'NONE',  ( -8.521381294766326800, 4.286233533351395200, -0.0009875106692792253900 ) ) ;
#157 = DIRECTION ( 'NONE',  ( 0.0000000000000000000, 0.0000000000000000000, 1.000000000000000000 ) ) ;
#158 = LINE ( 'NONE', #69, #150 ) ;
#159 = CARTESIAN_POINT ( 'NONE',  ( -5.377642775528102000E-014, 12.85232486701973400, 0.2478903452005011300 ) ) ;
#160 = DIRECTION ( 'NONE',  ( 1.000000000000000000, 0.0000000000000000000, 0.0000000000000000000 ) ) ;
#161 = CARTESIAN_POINT ( 'NONE',  ( -8.512932024872158700, 12.85232486701973400, 0.3294929480797395000 ) ) ;
#162 = COORDINATED_UNIVERSAL_TIME_OFFSET ( 2, 0, .AHEAD. ) ;
#163 = PERSON_AND_ORGANIZATION_ROLE ( 'design_owner' ) ;
#164 = CIRCLE ( 'NONE', #26, 12.69999999999999900 ) ;
#165 = CC_DESIGN_DATE_AND_TIME_ASSIGNMENT ( #57, #185, ( #67 ) ) ;
#166 = APPROVAL_STATUS ( 'not_yet_approved' ) ;
#167 = AXIS2_PLACEMENT_3D ( 'NONE', #145, #116, #223 ) ;
#168 = DATE_AND_TIME ( #18, #171 ) ;
#169 = LOCAL_TIME ( 16, 58, 1.000000000000000000, #162 ) ;
#170 = EDGE_LOOP ( 'NONE', ( #206, #152, #234 ) ) ;
#171 = LOCAL_TIME ( 16, 58, 1.000000000000000000, #77 ) ;
#172 = CARTESIAN_POINT ( 'NONE',  ( 12.77933174297966300, 4.286233533351396100, 0.1623496602190491500 ) ) ;
#173 = APPROVAL_DATE_TIME ( #134, #78 ) ;
#174 = CARTESIAN_POINT ( 'NONE',  ( 2.842170943040400100E-014, 4.286233533351396100, -0.08267110590388039600 ) ) ;
#175 = CC_DESIGN_APPROVAL ( #78, ( #190 ) ) ;
#176 = CC_DESIGN_PERSON_AND_ORGANIZATION_ASSIGNMENT ( #216, #76, ( #67 ) ) ;
#177 = DATE_AND_TIME ( #114, #11 ) ;
#178 = CARTESIAN_POINT ( 'NONE',  ( -8.512932024872158700, -12.85232486701974100, 0.3294929480797395000 ) ) ;
#179 = CARTESIAN_POINT ( 'NONE',  ( -4.261082145515927300, 4.286233533351395200, -0.08267110590388598900 ) ) ;
#180 = UNCERTAINTY_MEASURE_WITH_UNIT (LENGTH_MEASURE( 1.000000000000000100E-005 ), #75, 'distance_accuracy_value', 'NONE');
#181 = CARTESIAN_POINT ( 'NONE',  ( 0.0000000000000000000, 26.11199999999999800, 4.000000000000000000 ) ) ;
#182 = EDGE_CURVE ( 'NONE', #151, #191, #142, .T. ) ;
#183 = ORIENTED_EDGE ( 'NONE', *, *, #112, .F. ) ;
#184 = MECHANICAL_CONTEXT ( 'NONE', #205, 'mechanical' ) ;
#185 = DATE_TIME_ROLE ( 'creation_date' ) ;
#186 = CIRCLE ( 'NONE', #133, 12.69999999999999900 ) ;
#187 = PRODUCT_RELATED_PRODUCT_CATEGORY ( 'detail', '', ( #97 ) ) ;
#188 = EDGE_CURVE ( 'NONE', #47, #191, #119, .T. ) ;
#189 = ORIENTED_EDGE ( 'NONE', *, *, #226, .T. ) ;
#190 = SECURITY_CLASSIFICATION ( '', '', #41 ) ;
#191 = VERTEX_POINT ( 'NONE', #126 ) ;
#192 = APPROVAL_DATE_TIME ( #168, #81 ) ;
#193 = CARTESIAN_POINT ( 'NONE',  ( 4.261082145515902500, 4.286233533351395200, -0.08267110590388039600 ) ) ;
#194 = AXIS2_PLACEMENT_3D ( 'NONE', #181, #231, #37 ) ;
#195 = CARTESIAN_POINT ( 'NONE',  ( 2.842170943040400100E-014, -12.69999999999991900, 0.2420470848954197600 ) ) ;
#196 = DIRECTION ( 'NONE',  ( 1.000000000000000000, 0.0000000000000000000, 0.0000000000000000000 ) ) ;
#197 = ADVANCED_FACE ( 'NONE', ( #49 ), #91, .T. ) ;
#198 = ORIENTED_EDGE ( 'NONE', *, *, #201, .T. ) ;
#199 = CARTESIAN_POINT ( 'NONE',  ( -5.377642775528102000E-014, -12.85232486701974100, 0.2478903452005011300 ) ) ;
#200 = CARTESIAN_POINT ( 'NONE',  ( 12.69999999999999900, 2.442490654175340100E-015, 0.2420470848954479900 ) ) ;
#201 = EDGE_CURVE ( 'NONE', #47, #63, #210, .T. ) ;
#202 = CARTESIAN_POINT ( 'NONE',  ( 4.996003610813200500E-016, 2.442490654175340100E-015, 0.2420470848954479900 ) ) ;
#203 = ORIENTED_EDGE ( 'NONE', *, *, #182, .T. ) ;
#204 = CARTESIAN_POINT ( 'NONE',  ( -12.77933174297968400, 4.286233533351396100, 0.1623496602190572000 ) ) ;
#205 = APPLICATION_CONTEXT ( 'configuration controlled 3d designs of mechanical parts and assemblies' ) ;
#206 = ORIENTED_EDGE ( 'NONE', *, *, #10, .F. ) ;
#207 = COORDINATED_UNIVERSAL_TIME_OFFSET ( 2, 0, .AHEAD. ) ;
#208 = FACE_OUTER_BOUND ( 'NONE', #128, .T. ) ;
#209 = CALENDAR_DATE ( 2018, 13, 12 ) ;
#210 = CIRCLE ( 'NONE', #141, 12.69999999999999900 ) ;
#211 = PRODUCT_DEFINITION_FORMATION_WITH_SPECIFIED_SOURCE ( 'ANY', '', #97, .NOT_KNOWN. ) ;
#212 = ORGANIZATION ( 'UNSPECIFIED', 'UNSPECIFIED', '' ) ;
#213 = EDGE_CURVE ( 'NONE', #63, #139, #186, .T. ) ;
#214 = CARTESIAN_POINT ( 'NONE',  ( 12.69999999999999900, 2.442490654175340100E-015, 0.2420470848954479900 ) ) ;
#215 = DIRECTION ( 'NONE',  ( 1.000000000000000000, 0.0000000000000000000, 0.0000000000000000000 ) ) ;
#216 = PERSON_AND_ORGANIZATION ( #42, #212 ) ;
#217 = DIRECTION ( 'NONE',  ( -0.0000000000000000000, -0.0000000000000000000, -1.000000000000000000 ) ) ;
#218 = CARTESIAN_POINT ( 'NONE',  ( -4.256857122383726400, 12.85232486701973400, 0.2478903452005021500 ) ) ;
#219 = ADVANCED_FACE ( 'NONE', ( #123 ), #38, .T. ) ;
#220 = DIRECTION ( 'NONE',  ( 0.0000000000000000000, 0.0000000000000000000, 1.000000000000000000 ) ) ;
#221 = ADVANCED_FACE ( 'NONE', ( #229 ), #44, .T. ) ;
#222 = ORIENTED_EDGE ( 'NONE', *, *, #213, .F. ) ;
#223 = DIRECTION ( 'NONE',  ( 1.000000000000000000, 0.0000000000000000000, 0.0000000000000000000 ) ) ;
#224 = APPROVAL_ROLE ( '' ) ;
#225 = CC_DESIGN_PERSON_AND_ORGANIZATION_ASSIGNMENT ( #46, #148, ( #190 ) ) ;
#226 = EDGE_CURVE ( 'NONE', #139, #151, #158, .T. ) ;
#227 = PERSON_AND_ORGANIZATION ( #42, #212 ) ;
#228 = CIRCLE ( 'NONE', #107, 12.69999999999999900 ) ;
#229 = FACE_OUTER_BOUND ( 'NONE', #96, .T. ) ;
#230 = AXIS2_PLACEMENT_3D ( 'NONE', #51, #215, #52 ) ;
#231 = DIRECTION ( 'NONE',  ( 0.0000000000000000000, 0.0000000000000000000, 1.000000000000000000 ) ) ;
#232 = CARTESIAN_POINT ( 'NONE',  ( -12.77933174297968200, -4.286233533351403200, 0.1623496602190599700 ) ) ;
#233 = CARTESIAN_POINT ( 'NONE',  ( -4.261082145515925600, -4.286233533351401400, -0.08267110590388307400 ) ) ;
#234 = ORIENTED_EDGE ( 'NONE', *, *, #73, .T. ) ;
#235 = CARTESIAN_POINT ( 'NONE',  ( -12.69999999999999900, 3.997792089092478900E-015, 4.000000000000000000 ) ) ;
ENDSEC;
END-ISO-10303-21;
