ISO-10303-21;
HEADER;
FILE_DESCRIPTION (( 'STEP AP203' ),
    '1' );
FILE_NAME ('110-1235E UVFS pl-cx 25.4 F600.STEP',
    '2018-12-13T14:58:17',
    ( '' ),
    ( '' ),
    'SwSTEP 2.0',
    'SolidWorks 2017',
    '' );
FILE_SCHEMA (( 'CONFIG_CONTROL_DESIGN' ));
ENDSEC;

DATA;
#1 = CALENDAR_DATE ( 2018, 13, 12 ) ;
#2 = VECTOR ( 'NONE', #191, 1000.000000000000000 ) ;
#3 = CALENDAR_DATE ( 2018, 13, 12 ) ;
#4 = CARTESIAN_POINT ( 'NONE',  ( -12.76320627507529100, -12.85229765279996900, 0.5749502050325094900 ) ) ;
#5 = CARTESIAN_POINT ( 'NONE',  ( -4.256177467709051100, -12.85229765279996900, 0.2893299488366003500 ) ) ;
#6 = CIRCLE ( 'NONE', #117, 12.69999999999999900 ) ;
#7 = DIRECTION ( 'NONE',  ( 0.0000000000000000000, 0.0000000000000000000, 1.000000000000000000 ) ) ;
#8 = SECURITY_CLASSIFICATION ( '', '', #232 ) ;
#9 = ORIENTED_EDGE ( 'NONE', *, *, #149, .F. ) ;
#10 = UNCERTAINTY_MEASURE_WITH_UNIT (LENGTH_MEASURE( 1.000000000000000100E-005 ), #31, 'distance_accuracy_value', 'NONE');
#11 = CARTESIAN_POINT ( 'NONE',  ( 4.261933287822214900, 4.286994539520566900, -0.09650849554605429900 ) ) ;
#12 = CARTESIAN_POINT ( 'NONE',  ( 0.0000000000000000000, 0.0000000000000000000, 0.0000000000000000000 ) ) ;
#13 = AXIS2_PLACEMENT_3D ( 'NONE', #66, #221, #222 ) ;
#14 = PERSON_AND_ORGANIZATION ( #97, #181 ) ;
#15 = FACE_OUTER_BOUND ( 'NONE', #211, .T. ) ;
#16 =( BOUNDED_SURFACE ( )  B_SPLINE_SURFACE ( 3, 3, ( 
 ( #203, #88, #229, #120 ),
 ( #206, #139, #224, #225 ),
 ( #70, #11, #47, #91 ),
 ( #107, #141, #137, #121 ) ),
 .UNSPECIFIED., .F., .F., .T. ) 
 B_SPLINE_SURFACE_WITH_KNOTS ( ( 4, 4 ),
 ( 4, 4 ),
 ( 0.0000000000000000000, 1.000000000000000000 ),
 ( 0.0000000000000000000, 1.000000000000000000 ),
 .UNSPECIFIED. ) 
 GEOMETRIC_REPRESENTATION_ITEM ( )  RATIONAL_B_SPLINE_SURFACE ( (
 ( 1.000000000000000000, 0.9998331316021440400, 0.9998331316021440400, 1.000000000000000000),
 ( 0.9993246266367026300, 0.9991578709373177800, 0.9991578709373177800, 0.9993246266367026300),
 ( 0.9993246266367026300, 0.9991578709373177800, 0.9991578709373177800, 0.9993246266367026300),
 ( 1.000000000000000000, 0.9998331316021440400, 0.9998331316021440400, 1.000000000000000000) ) ) 
 REPRESENTATION_ITEM ( '' )  SURFACE ( )  );
#17 = CIRCLE ( 'NONE', #213, 12.69999999999999900 ) ;
#18 = EDGE_CURVE ( 'NONE', #51, #151, #198, .T. ) ;
#19 = CARTESIAN_POINT ( 'NONE',  ( -8.522799802674995800, -4.286994539520591700, -0.001157079972266116700 ) ) ;
#20 = ADVANCED_FACE ( 'NONE', ( #210 ), #106, .T. ) ;
#21 = ORIENTED_EDGE ( 'NONE', *, *, #209, .T. ) ;
#22 = PRODUCT_DEFINITION ( 'UNKNOWN', '', #104, #136 ) ;
#23 = APPROVAL_PERSON_ORGANIZATION ( #124, #112, #50 ) ;
#24 = CIRCLE ( 'NONE', #54, 12.69999999999999900 ) ;
#25 = CARTESIAN_POINT ( 'NONE',  ( -12.69999999999999900, 3.997792089092478900E-015, 4.000000000000000000 ) ) ;
#26 = EDGE_CURVE ( 'NONE', #123, #151, #17, .T. ) ;
#27 = PERSON_AND_ORGANIZATION ( #97, #181 ) ;
#28 = ORIENTED_EDGE ( 'NONE', *, *, #160, .F. ) ;
#29 = CC_DESIGN_APPROVAL ( #60, ( #8 ) ) ;
#30 = CARTESIAN_POINT ( 'NONE',  ( -12.69999999999999900, 3.997792089092478900E-015, 0.2825101750683080000 ) ) ;
#31 =( LENGTH_UNIT ( ) NAMED_UNIT ( * ) SI_UNIT ( .MILLI., .METRE. ) );
#32 = CIRCLE ( 'NONE', #153, 12.69999999999999900 ) ;
#33 = APPLICATION_CONTEXT ( 'configuration controlled 3d designs of mechanical parts and assemblies' ) ;
#34 = CC_DESIGN_PERSON_AND_ORGANIZATION_ASSIGNMENT ( #143, #157, ( #8 ) ) ;
#35 = EDGE_CURVE ( 'NONE', #37, #133, #67, .T. ) ;
#36 = PERSON_AND_ORGANIZATION ( #97, #181 ) ;
#37 = VERTEX_POINT ( 'NONE', #100 ) ;
#38 = PERSON_AND_ORGANIZATION_ROLE ( 'creator' ) ;
#39 = CARTESIAN_POINT ( 'NONE',  ( -8.511289603145547400, -12.85229765279996900, 0.3845525905515765300 ) ) ;
#40 = LOCAL_TIME ( 16, 58, 17.00000000000000000, #150 ) ;
#41 = CARTESIAN_POINT ( 'NONE',  ( 0.0000000000000000000, 26.11199999999999800, 4.000000000000000000 ) ) ;
#42 = VECTOR ( 'NONE', #164, 1000.000000000000000 ) ;
#43 = PLANE ( 'NONE',  #178 ) ;
#44 = CARTESIAN_POINT ( 'NONE',  ( 12.69999999999999900, 2.442490654175340100E-015, 4.000000000000000000 ) ) ;
#45 = DATE_AND_TIME ( #165, #92 ) ;
#46 = CC_DESIGN_DATE_AND_TIME_ASSIGNMENT ( #45, #175, ( #8 ) ) ;
#47 = CARTESIAN_POINT ( 'NONE',  ( 8.522799802675109500, 4.286994539520566900, -0.001157079972245164500 ) ) ;
#48 = CARTESIAN_POINT ( 'NONE',  ( 4.996003610813200500E-016, 2.442490654175340100E-015, 0.2825101750683080000 ) ) ;
#49 = ORIENTED_EDGE ( 'NONE', *, *, #127, .T. ) ;
#50 = APPROVAL_ROLE ( '' ) ;
#51 = VERTEX_POINT ( 'NONE', #182 ) ;
#52 = PERSON_AND_ORGANIZATION_ROLE ( 'design_owner' ) ;
#53 = MANIFOLD_SOLID_BREP ( 'Imported1', #126 ) ;
#54 = AXIS2_PLACEMENT_3D ( 'NONE', #190, #85, #105 ) ;
#55 = MECHANICAL_CONTEXT ( 'NONE', #94, 'mechanical' ) ;
#56 = LOCAL_TIME ( 16, 58, 17.00000000000000000, #74 ) ;
#57 = ORIENTED_EDGE ( 'NONE', *, *, #26, .F. ) ;
#58 = EDGE_LOOP ( 'NONE', ( #28, #57 ) ) ;
#59 = CARTESIAN_POINT ( 'NONE',  ( 4.996003610813200500E-016, 2.442490654175340100E-015, 4.000000000000000000 ) ) ;
#60 = APPROVAL ( #73, 'UNSPECIFIED' ) ;
#61 = CARTESIAN_POINT ( 'NONE',  ( -4.261933287822134100, -4.286994539520591700, -0.09650849554607728000 ) ) ;
#62 = APPROVAL ( #197, 'UNSPECIFIED' ) ;
#63 = CARTESIAN_POINT ( 'NONE',  ( -8.522799802674995800, 4.286994539520566900, -0.001157079972268773000 ) ) ;
#64 = ORIENTED_EDGE ( 'NONE', *, *, #127, .F. ) ;
#65 = DIRECTION ( 'NONE',  ( 1.000000000000000000, 0.0000000000000000000, 0.0000000000000000000 ) ) ;
#66 = CARTESIAN_POINT ( 'NONE',  ( 0.0000000000000000000, -5.684341886080800200E-014, 285.6000000000000200 ) ) ;
#67 = CIRCLE ( 'NONE', #13, 285.5999999999999700 ) ;
#68 = AXIS2_PLACEMENT_3D ( 'NONE', #118, #83, #174 ) ;
#69 = ORIENTED_EDGE ( 'NONE', *, *, #171, .F. ) ;
#70 = CARTESIAN_POINT ( 'NONE',  ( 5.875706246676013000E-014, 4.286994539520567700, -0.09650849554605517300 ) ) ;
#71 = DIRECTION ( 'NONE',  ( 1.000000000000000000, 0.0000000000000000000, 0.0000000000000000000 ) ) ;
#72 = ORIENTED_EDGE ( 'NONE', *, *, #235, .F. ) ;
#73 = APPROVAL_STATUS ( 'not_yet_approved' ) ;
#74 = COORDINATED_UNIVERSAL_TIME_OFFSET ( 2, 0, .AHEAD. ) ;
#75 = ORIENTED_EDGE ( 'NONE', *, *, #149, .T. ) ;
#76 = CC_DESIGN_PERSON_AND_ORGANIZATION_ASSIGNMENT ( #14, #38, ( #22 ) ) ;
#77 = CALENDAR_DATE ( 2018, 13, 12 ) ;
#78 = CYLINDRICAL_SURFACE ( 'NONE', #204, 12.69999999999999900 ) ;
#79 = APPLICATION_PROTOCOL_DEFINITION ( 'international standard', 'config_control_design', 1994, #33 ) ;
#80 =( GEOMETRIC_REPRESENTATION_CONTEXT ( 3 ) GLOBAL_UNCERTAINTY_ASSIGNED_CONTEXT ( ( #10 ) ) GLOBAL_UNIT_ASSIGNED_CONTEXT ( ( #31, #154, #155 ) ) REPRESENTATION_CONTEXT ( 'NONE', 'WORKASPACE' ) );
#81 = DIRECTION ( 'NONE',  ( -0.0000000000000000000, -0.0000000000000000000, -1.000000000000000000 ) ) ;
#82 = CARTESIAN_POINT ( 'NONE',  ( -12.78046653265215400, -4.286994539520591700, 0.1894980177614744900 ) ) ;
#83 = DIRECTION ( 'NONE',  ( -0.0000000000000000000, -0.0000000000000000000, -1.000000000000000000 ) ) ;
#84 = FACE_OUTER_BOUND ( 'NONE', #58, .T. ) ;
#85 = DIRECTION ( 'NONE',  ( -0.0000000000000000000, -0.0000000000000000000, -1.000000000000000000 ) ) ;
#86 = DIRECTION ( 'NONE',  ( -0.0000000000000000000, -0.0000000000000000000, -1.000000000000000000 ) ) ;
#87 = LOCAL_TIME ( 16, 58, 17.00000000000000000, #129 ) ;
#88 = CARTESIAN_POINT ( 'NONE',  ( 4.256177467709132900, -12.85229765279996900, 0.2893299488366260500 ) ) ;
#89 = CC_DESIGN_DATE_AND_TIME_ASSIGNMENT ( #189, #208, ( #22 ) ) ;
#90 = DIRECTION ( 'NONE',  ( 0.0000000000000000000, 0.0000000000000000000, 1.000000000000000000 ) ) ;
#91 = CARTESIAN_POINT ( 'NONE',  ( 12.78046653265230700, 4.286994539520567700, 0.1894980177614991900 ) ) ;
#92 = LOCAL_TIME ( 16, 58, 17.00000000000000000, #101 ) ;
#93 = ORIENTED_EDGE ( 'NONE', *, *, #209, .F. ) ;
#94 = APPLICATION_CONTEXT ( 'configuration controlled 3d designs of mechanical parts and assemblies' ) ;
#95 = PERSON_AND_ORGANIZATION ( #97, #181 ) ;
#96 = APPLICATION_PROTOCOL_DEFINITION ( 'international standard', 'config_control_design', 1994, #94 ) ;
#97 = PERSON ( 'UNSPECIFIED', 'UNSPECIFIED', 'UNSPECIFIED', ('UNSPECIFIED'), ('UNSPECIFIED'), ('UNSPECIFIED') ) ;
#98 = ORIENTED_EDGE ( 'NONE', *, *, #160, .T. ) ;
#99 = DIRECTION ( 'NONE',  ( 1.000000000000000000, 0.0000000000000000000, 0.0000000000000000000 ) ) ;
#100 = CARTESIAN_POINT ( 'NONE',  ( 5.867911253372582400E-014, -12.69999999999937400, 0.2825101750683074500 ) ) ;
#101 = COORDINATED_UNIVERSAL_TIME_OFFSET ( 2, 0, .AHEAD. ) ;
#102 = CARTESIAN_POINT ( 'NONE',  ( -1.214306433183765000E-014, 12.85229765279994400, 0.2893299488366002400 ) ) ;
#103 = ADVANCED_FACE ( 'NONE', ( #84 ), #43, .T. ) ;
#104 = PRODUCT_DEFINITION_FORMATION_WITH_SPECIFIED_SOURCE ( 'ANY', '', #196, .NOT_KNOWN. ) ;
#105 = DIRECTION ( 'NONE',  ( 1.000000000000000000, 0.0000000000000000000, 0.0000000000000000000 ) ) ;
#106 =( BOUNDED_SURFACE ( )  B_SPLINE_SURFACE ( 3, 3, ( 
 ( #4, #39, #5, #212 ),
 ( #82, #19, #61, #166 ),
 ( #217, #63, #183, #214 ),
 ( #163, #184, #147, #102 ) ),
 .UNSPECIFIED., .F., .F., .F. ) 
 B_SPLINE_SURFACE_WITH_KNOTS ( ( 4, 4 ),
 ( 4, 4 ),
 ( 0.0000000000000000000, 1.000000000000000000 ),
 ( 0.0000000000000000000, 1.000000000000000000 ),
 .UNSPECIFIED. ) 
 GEOMETRIC_REPRESENTATION_ITEM ( )  RATIONAL_B_SPLINE_SURFACE ( (
 ( 1.000000000000000000, 0.9998331316021440400, 0.9998331316021440400, 1.000000000000000000),
 ( 0.9993246266367026300, 0.9991578709373177800, 0.9991578709373177800, 0.9993246266367026300),
 ( 0.9993246266367026300, 0.9991578709373177800, 0.9991578709373177800, 0.9993246266367026300),
 ( 1.000000000000000000, 0.9998331316021440400, 0.9998331316021440400, 1.000000000000000000) ) ) 
 REPRESENTATION_ITEM ( '' )  SURFACE ( )  );
#107 = CARTESIAN_POINT ( 'NONE',  ( 5.867770996190085000E-014, 12.85229765279994400, 0.2893299488366252200 ) ) ;
#108 = ADVANCED_BREP_SHAPE_REPRESENTATION ( '110-1235E UVFS pl-cx 25.4 F600', ( #53, #216 ), #80 ) ;
#109 = APPROVAL_ROLE ( '' ) ;
#110 = CALENDAR_DATE ( 2018, 13, 12 ) ;
#111 = ORIENTED_EDGE ( 'NONE', *, *, #235, .T. ) ;
#112 = APPROVAL ( #159, 'UNSPECIFIED' ) ;
#113 = EDGE_LOOP ( 'NONE', ( #228, #49, #186 ) ) ;
#114 = EDGE_LOOP ( 'NONE', ( #69, #21, #162, #140, #72 ) ) ;
#115 = ADVANCED_FACE ( 'NONE', ( #169 ), #78, .T. ) ;
#116 = EDGE_LOOP ( 'NONE', ( #93, #64, #9, #145, #98 ) ) ;
#117 = AXIS2_PLACEMENT_3D ( 'NONE', #226, #138, #152 ) ;
#118 = CARTESIAN_POINT ( 'NONE',  ( 4.996003610813200500E-016, 2.442490654175340100E-015, 4.000000000000000000 ) ) ;
#119 = DIRECTION ( 'NONE',  ( 0.0000000000000000000, 0.0000000000000000000, 1.000000000000000000 ) ) ;
#120 = CARTESIAN_POINT ( 'NONE',  ( 12.76320627507544200, -12.85229765279996900, 0.5749502050325368000 ) ) ;
#121 = CARTESIAN_POINT ( 'NONE',  ( 12.76320627507544200, 12.85229765279994400, 0.5749502050325368000 ) ) ;
#122 = DATE_AND_TIME ( #110, #40 ) ;
#123 = VERTEX_POINT ( 'NONE', #25 ) ;
#124 = PERSON_AND_ORGANIZATION ( #97, #181 ) ;
#125 = APPROVAL_DATE_TIME ( #173, #60 ) ;
#126 = CLOSED_SHELL ( 'NONE', ( #215, #115, #20, #200, #103 ) ) ;
#127 = EDGE_CURVE ( 'NONE', #37, #220, #24, .T. ) ;
#128 = CC_DESIGN_SECURITY_CLASSIFICATION ( #8, ( #104 ) ) ;
#129 = COORDINATED_UNIVERSAL_TIME_OFFSET ( 2, 0, .AHEAD. ) ;
#130 = CC_DESIGN_PERSON_AND_ORGANIZATION_ASSIGNMENT ( #132, #158, ( #104 ) ) ;
#131 = CARTESIAN_POINT ( 'NONE',  ( 12.69999999999999900, 2.442490654175340100E-015, 0.2825101750683080000 ) ) ;
#132 = PERSON_AND_ORGANIZATION ( #97, #181 ) ;
#133 = VERTEX_POINT ( 'NONE', #134 ) ;
#134 = CARTESIAN_POINT ( 'NONE',  ( 5.867911253372582400E-014, 12.69999999999931700, 0.2825101750683074500 ) ) ;
#135 = APPROVAL_DATE_TIME ( #161, #112 ) ;
#136 = DESIGN_CONTEXT ( 'detailed design', #33, 'design' ) ;
#137 = CARTESIAN_POINT ( 'NONE',  ( 8.511289603145662900, 12.85229765279994400, 0.3845525905516000700 ) ) ;
#138 = DIRECTION ( 'NONE',  ( -0.0000000000000000000, -0.0000000000000000000, -1.000000000000000000 ) ) ;
#139 = CARTESIAN_POINT ( 'NONE',  ( 4.261933287822214900, -4.286994539520591700, -0.09650849554605157900 ) ) ;
#140 = ORIENTED_EDGE ( 'NONE', *, *, #18, .F. ) ;
#141 = CARTESIAN_POINT ( 'NONE',  ( 4.256177467709132900, 12.85229765279994400, 0.2893299488366260500 ) ) ;
#142 = CC_DESIGN_PERSON_AND_ORGANIZATION_ASSIGNMENT ( #227, #52, ( #196 ) ) ;
#143 = PERSON_AND_ORGANIZATION ( #97, #181 ) ;
#144 = AXIS2_PLACEMENT_3D ( 'NONE', #48, #90, #172 ) ;
#145 = ORIENTED_EDGE ( 'NONE', *, *, #18, .T. ) ;
#146 = PERSON_AND_ORGANIZATION_ROLE ( 'design_supplier' ) ;
#147 = CARTESIAN_POINT ( 'NONE',  ( -4.256177467709051100, 12.85229765279994400, 0.2893299488366003500 ) ) ;
#148 = CIRCLE ( 'NONE', #68, 12.69999999999999900 ) ;
#149 = EDGE_CURVE ( 'NONE', #51, #37, #156, .T. ) ;
#150 = COORDINATED_UNIVERSAL_TIME_OFFSET ( 2, 0, .AHEAD. ) ;
#151 = VERTEX_POINT ( 'NONE', #44 ) ;
#152 = DIRECTION ( 'NONE',  ( 1.000000000000000000, 0.0000000000000000000, 0.0000000000000000000 ) ) ;
#153 = AXIS2_PLACEMENT_3D ( 'NONE', #230, #193, #71 ) ;
#154 =( NAMED_UNIT ( * ) PLANE_ANGLE_UNIT ( ) SI_UNIT ( $, .RADIAN. ) );
#155 =( NAMED_UNIT ( * ) SI_UNIT ( $, .STERADIAN. ) SOLID_ANGLE_UNIT ( ) );
#156 = CIRCLE ( 'NONE', #202, 12.69999999999999900 ) ;
#157 = PERSON_AND_ORGANIZATION_ROLE ( 'classification_officer' ) ;
#158 = PERSON_AND_ORGANIZATION_ROLE ( 'creator' ) ;
#159 = APPROVAL_STATUS ( 'not_yet_approved' ) ;
#160 = EDGE_CURVE ( 'NONE', #151, #123, #148, .T. ) ;
#161 = DATE_AND_TIME ( #3, #56 ) ;
#162 = ORIENTED_EDGE ( 'NONE', *, *, #26, .T. ) ;
#163 = CARTESIAN_POINT ( 'NONE',  ( -12.76320627507529100, 12.85229765279994400, 0.5749502050325094900 ) ) ;
#164 = DIRECTION ( 'NONE',  ( 0.0000000000000000000, 0.0000000000000000000, 1.000000000000000000 ) ) ;
#165 = CALENDAR_DATE ( 2018, 13, 12 ) ;
#166 = CARTESIAN_POINT ( 'NONE',  ( -1.214306433183765000E-014, -4.286994539520591700, -0.09650849554607746100 ) ) ;
#167 = CYLINDRICAL_SURFACE ( 'NONE', #144, 12.69999999999999900 ) ;
#168 = CC_DESIGN_PERSON_AND_ORGANIZATION_ASSIGNMENT ( #95, #146, ( #104 ) ) ;
#169 = FACE_OUTER_BOUND ( 'NONE', #114, .T. ) ;
#170 = DIRECTION ( 'NONE',  ( 1.000000000000000000, 0.0000000000000000000, -0.0000000000000000000 ) ) ;
#171 = EDGE_CURVE ( 'NONE', #220, #133, #32, .T. ) ;
#172 = DIRECTION ( 'NONE',  ( 1.000000000000000000, 0.0000000000000000000, 0.0000000000000000000 ) ) ;
#173 = DATE_AND_TIME ( #1, #87 ) ;
#174 = DIRECTION ( 'NONE',  ( 1.000000000000000000, 0.0000000000000000000, 0.0000000000000000000 ) ) ;
#175 = DATE_TIME_ROLE ( 'classification_date' ) ;
#176 = PRODUCT_DEFINITION_SHAPE ( 'NONE', 'NONE',  #22 ) ;
#177 = APPROVAL_ROLE ( '' ) ;
#178 = AXIS2_PLACEMENT_3D ( 'NONE', #41, #7, #170 ) ;
#179 = CC_DESIGN_APPROVAL ( #112, ( #104 ) ) ;
#180 = LOCAL_TIME ( 16, 58, 17.00000000000000000, #233 ) ;
#181 = ORGANIZATION ( 'UNSPECIFIED', 'UNSPECIFIED', '' ) ;
#182 = CARTESIAN_POINT ( 'NONE',  ( 12.69999999999999900, 2.442490654175340100E-015, 0.2825101750683080000 ) ) ;
#183 = CARTESIAN_POINT ( 'NONE',  ( -4.261933287822134100, 4.286994539520566900, -0.09650849554607998600 ) ) ;
#184 = CARTESIAN_POINT ( 'NONE',  ( -8.511289603145547400, 12.85229765279994400, 0.3845525905515765300 ) ) ;
#185 = APPROVAL_PERSON_ORGANIZATION ( #27, #62, #109 ) ;
#186 = ORIENTED_EDGE ( 'NONE', *, *, #171, .T. ) ;
#187 = DIRECTION ( 'NONE',  ( 1.000000000000000000, 0.0000000000000000000, 0.0000000000000000000 ) ) ;
#188 = CARTESIAN_POINT ( 'NONE',  ( 4.996003610813200500E-016, 2.442490654175340100E-015, 0.2825101750683080000 ) ) ;
#189 = DATE_AND_TIME ( #77, #180 ) ;
#190 = CARTESIAN_POINT ( 'NONE',  ( 4.996003610813200500E-016, 2.442490654175340100E-015, 0.2825101750683080000 ) ) ;
#191 = DIRECTION ( 'NONE',  ( 0.0000000000000000000, 0.0000000000000000000, 1.000000000000000000 ) ) ;
#192 = DIRECTION ( 'NONE',  ( 0.0000000000000000000, 0.0000000000000000000, 1.000000000000000000 ) ) ;
#193 = DIRECTION ( 'NONE',  ( -0.0000000000000000000, -0.0000000000000000000, -1.000000000000000000 ) ) ;
#194 = LINE ( 'NONE', #205, #2 ) ;
#195 = SHAPE_DEFINITION_REPRESENTATION ( #176, #108 ) ;
#196 = PRODUCT ( '110-1235E UVFS pl-cx 25.4 F600', '110-1235E UVFS pl-cx 25.4 F600', '', ( #55 ) ) ;
#197 = APPROVAL_STATUS ( 'not_yet_approved' ) ;
#198 = LINE ( 'NONE', #131, #42 ) ;
#199 = DIRECTION ( 'NONE',  ( 1.000000000000000000, 0.0000000000000000000, 0.0000000000000000000 ) ) ;
#200 = ADVANCED_FACE ( 'NONE', ( #207 ), #167, .T. ) ;
#201 = ORIENTED_EDGE ( 'NONE', *, *, #35, .T. ) ;
#202 = AXIS2_PLACEMENT_3D ( 'NONE', #188, #86, #65 ) ;
#203 = CARTESIAN_POINT ( 'NONE',  ( 5.867770996190085000E-014, -12.85229765279996900, 0.2893299488366252200 ) ) ;
#204 = AXIS2_PLACEMENT_3D ( 'NONE', #218, #119, #187 ) ;
#205 = CARTESIAN_POINT ( 'NONE',  ( -12.69999999999999900, 3.997792089092478900E-015, 0.2825101750683080000 ) ) ;
#206 = CARTESIAN_POINT ( 'NONE',  ( 5.875706246676013000E-014, -4.286994539520591700, -0.09650849554605245300 ) ) ;
#207 = FACE_OUTER_BOUND ( 'NONE', #116, .T. ) ;
#208 = DATE_TIME_ROLE ( 'creation_date' ) ;
#209 = EDGE_CURVE ( 'NONE', #220, #123, #194, .T. ) ;
#210 = FACE_OUTER_BOUND ( 'NONE', #113, .T. ) ;
#211 = EDGE_LOOP ( 'NONE', ( #75, #201, #111 ) ) ;
#212 = CARTESIAN_POINT ( 'NONE',  ( -1.214306433183765000E-014, -12.85229765279996900, 0.2893299488366002400 ) ) ;
#213 = AXIS2_PLACEMENT_3D ( 'NONE', #59, #81, #199 ) ;
#214 = CARTESIAN_POINT ( 'NONE',  ( -1.214306433183765000E-014, 4.286994539520567700, -0.09650849554608016700 ) ) ;
#215 = ADVANCED_FACE ( 'NONE', ( #15 ), #16, .T. ) ;
#216 = AXIS2_PLACEMENT_3D ( 'NONE', #12, #192, #99 ) ;
#217 = CARTESIAN_POINT ( 'NONE',  ( -12.78046653265215400, 4.286994539520567700, 0.1894980177614718200 ) ) ;
#218 = CARTESIAN_POINT ( 'NONE',  ( 4.996003610813200500E-016, 2.442490654175340100E-015, 0.2825101750683080000 ) ) ;
#219 = APPROVAL_DATE_TIME ( #122, #62 ) ;
#220 = VERTEX_POINT ( 'NONE', #30 ) ;
#221 = DIRECTION ( 'NONE',  ( 1.000000000000000000, 0.0000000000000000000, 2.056625150099659900E-016 ) ) ;
#222 = DIRECTION ( 'NONE',  ( 0.0000000000000000000, -1.000000000000000000, 0.0000000000000000000 ) ) ;
#223 = APPROVAL_PERSON_ORGANIZATION ( #36, #60, #177 ) ;
#224 = CARTESIAN_POINT ( 'NONE',  ( 8.522799802675109500, -4.286994539520591700, -0.001157079972242454000 ) ) ;
#225 = CARTESIAN_POINT ( 'NONE',  ( 12.78046653265230700, -4.286994539520591700, 0.1894980177615019400 ) ) ;
#226 = CARTESIAN_POINT ( 'NONE',  ( 4.996003610813200500E-016, 2.442490654175340100E-015, 0.2825101750683080000 ) ) ;
#227 = PERSON_AND_ORGANIZATION ( #97, #181 ) ;
#228 = ORIENTED_EDGE ( 'NONE', *, *, #35, .F. ) ;
#229 = CARTESIAN_POINT ( 'NONE',  ( 8.511289603145662900, -12.85229765279996900, 0.3845525905516000700 ) ) ;
#230 = CARTESIAN_POINT ( 'NONE',  ( 4.996003610813200500E-016, 2.442490654175340100E-015, 0.2825101750683080000 ) ) ;
#231 = PRODUCT_RELATED_PRODUCT_CATEGORY ( 'detail', '', ( #196 ) ) ;
#232 = SECURITY_CLASSIFICATION_LEVEL ( 'unclassified' ) ;
#233 = COORDINATED_UNIVERSAL_TIME_OFFSET ( 2, 0, .AHEAD. ) ;
#234 = CC_DESIGN_APPROVAL ( #62, ( #22 ) ) ;
#235 = EDGE_CURVE ( 'NONE', #133, #51, #6, .T. ) ;
ENDSEC;
END-ISO-10303-21;
