ISO-10303-21;
HEADER;
FILE_DESCRIPTION (( 'STEP AP203' ),
    '1' );
FILE_NAME ('110-1234E UVFS pl-cx 25.4 F550.STEP',
    '2018-12-13T15:49:59',
    ( '' ),
    ( '' ),
    'SwSTEP 2.0',
    'SolidWorks 2017',
    '' );
FILE_SCHEMA (( 'CONFIG_CONTROL_DESIGN' ));
ENDSEC;

DATA;
#1 =( NAMED_UNIT ( * ) PLANE_ANGLE_UNIT ( ) SI_UNIT ( $, .RADIAN. ) );
#2 = APPROVAL_STATUS ( 'not_yet_approved' ) ;
#3 = AXIS2_PLACEMENT_3D ( 'NONE', #140, #39, #163 ) ;
#4 = APPLICATION_CONTEXT ( 'configuration controlled 3d designs of mechanical parts and assemblies' ) ;
#5 = VERTEX_POINT ( 'NONE', #29 ) ;
#6 = PRODUCT_DEFINITION ( 'UNKNOWN', '', #109, #136 ) ;
#7 = LOCAL_TIME ( 17, 49, 59.00000000000000000, #22 ) ;
#8 = ADVANCED_FACE ( 'NONE', ( #92 ), #60, .T. ) ;
#9 = EDGE_LOOP ( 'NONE', ( #165, #146 ) ) ;
#10 = PERSON_AND_ORGANIZATION ( #138, #150 ) ;
#11 = CARTESIAN_POINT ( 'NONE',  ( -12.76073495789038100, 12.85227818008615400, 0.6272169828637208500 ) ) ;
#12 = CARTESIAN_POINT ( 'NONE',  ( -4.262542430240063000, 4.287539158552334600, -0.1053053607512267300 ) ) ;
#13 = CARTESIAN_POINT ( 'NONE',  ( -1.364760058556827200E-013, 4.287539158552332800, -0.1053053607512416300 ) ) ;
#14 = FACE_OUTER_BOUND ( 'NONE', #9, .T. ) ;
#15 = DIRECTION ( 'NONE',  ( -0.0000000000000000000, -0.0000000000000000000, -1.000000000000000000 ) ) ;
#16 = ORIENTED_EDGE ( 'NONE', *, *, #44, .F. ) ;
#17 =( NAMED_UNIT ( * ) SI_UNIT ( $, .STERADIAN. ) SOLID_ANGLE_UNIT ( ) );
#18 = VECTOR ( 'NONE', #48, 1000.000000000000000 ) ;
#19 = APPROVAL_STATUS ( 'not_yet_approved' ) ;
#20 = EDGE_CURVE ( 'NONE', #74, #5, #68, .T. ) ;
#21 = ORIENTED_EDGE ( 'NONE', *, *, #162, .F. ) ;
#22 = COORDINATED_UNIVERSAL_TIME_OFFSET ( 2, 0, .AHEAD. ) ;
#23 = CC_DESIGN_PERSON_AND_ORGANIZATION_ASSIGNMENT ( #104, #121, ( #41 ) ) ;
#24 = CIRCLE ( 'NONE', #187, 12.69999999999999900 ) ;
#25 = CARTESIAN_POINT ( 'NONE',  ( -12.69999999999999900, 3.997792089092478900E-015, 0.3082219265775830200 ) ) ;
#26 = ORIENTED_EDGE ( 'NONE', *, *, #94, .T. ) ;
#27 = APPROVAL ( #2, 'UNSPECIFIED' ) ;
#28 = DIRECTION ( 'NONE',  ( 1.000000000000000000, -2.219906492576930000E-016, -4.162042073819670000E-016 ) ) ;
#29 = CARTESIAN_POINT ( 'NONE',  ( -1.344364064147813300E-013, 12.69999999999987800, 0.3082219265775864000 ) ) ;
#30 = DATE_AND_TIME ( #101, #123 ) ;
#31 = DIRECTION ( 'NONE',  ( 1.000000000000000000, 0.0000000000000000000, 0.0000000000000000000 ) ) ;
#32 = CARTESIAN_POINT ( 'NONE',  ( -4.255691130166879600, -12.85227818008619300, 0.3156621409579210600 ) ) ;
#33 = APPROVAL_DATE_TIME ( #156, #185 ) ;
#34 = CARTESIAN_POINT ( 'NONE',  ( 12.76073495789049300, 12.85227818008614900, 0.6272169828637154100 ) ) ;
#35 = CARTESIAN_POINT ( 'NONE',  ( -1.383795930587323300E-013, -4.287539158552374600, -0.1053053607512411800 ) ) ;
#36 = APPLICATION_PROTOCOL_DEFINITION ( 'international standard', 'config_control_design', 1994, #4 ) ;
#37 = DATE_TIME_ROLE ( 'creation_date' ) ;
#38 = VERTEX_POINT ( 'NONE', #128 ) ;
#39 = DIRECTION ( 'NONE',  ( 0.0000000000000000000, 0.0000000000000000000, 1.000000000000000000 ) ) ;
#40 = CIRCLE ( 'NONE', #144, 12.69999999999999900 ) ;
#41 = PRODUCT ( '110-1234E UVFS pl-cx 25.4 F550', '110-1234E UVFS pl-cx 25.4 F550', '', ( #160 ) ) ;
#42 = CC_DESIGN_PERSON_AND_ORGANIZATION_ASSIGNMENT ( #218, #158, ( #6 ) ) ;
#43 = ORIENTED_EDGE ( 'NONE', *, *, #137, .T. ) ;
#44 = EDGE_CURVE ( 'NONE', #74, #58, #111, .T. ) ;
#45 = CIRCLE ( 'NONE', #182, 12.69999999999999900 ) ;
#46 = EDGE_CURVE ( 'NONE', #38, #126, #45, .T. ) ;
#47 = DIRECTION ( 'NONE',  ( -0.0000000000000000000, -0.0000000000000000000, -1.000000000000000000 ) ) ;
#48 = DIRECTION ( 'NONE',  ( 0.0000000000000000000, 0.0000000000000000000, 1.000000000000000000 ) ) ;
#49 = EDGE_LOOP ( 'NONE', ( #142, #97, #85 ) ) ;
#50 = DIRECTION ( 'NONE',  ( -2.219906492576931200E-016, -1.000000000000000000, -4.240729658614043200E-016 ) ) ;
#51 = CARTESIAN_POINT ( 'NONE',  ( -12.78127865377358500, -4.287539158552372800, 0.2067510579010673200 ) ) ;
#52 = DATE_AND_TIME ( #188, #170 ) ;
#53 = PERSON_AND_ORGANIZATION ( #138, #150 ) ;
#54 = DIRECTION ( 'NONE',  ( 0.0000000000000000000, 0.0000000000000000000, 1.000000000000000000 ) ) ;
#55 = EDGE_LOOP ( 'NONE', ( #21, #147, #191, #219, #226 ) ) ;
#56 = CARTESIAN_POINT ( 'NONE',  ( 4.262542430239876400, -4.287539158552377200, -0.1053053607512429600 ) ) ;
#57 = CARTESIAN_POINT ( 'NONE',  ( -2.012279232133096000E-013, -4.287539158552375400, -0.1053053607512291600 ) ) ;
#58 = VERTEX_POINT ( 'NONE', #130 ) ;
#59 = APPROVAL_ROLE ( '' ) ;
#60 = CYLINDRICAL_SURFACE ( 'NONE', #148, 12.69999999999999900 ) ;
#61 = AXIS2_PLACEMENT_3D ( 'NONE', #189, #86, #100 ) ;
#62 = COORDINATED_UNIVERSAL_TIME_OFFSET ( 2, 0, .AHEAD. ) ;
#63 = VECTOR ( 'NONE', #73, 1000.000000000000000 ) ;
#64 = CARTESIAN_POINT ( 'NONE',  ( 4.996003610813200500E-016, 2.442490654175340100E-015, 0.3082219265775830200 ) ) ;
#65 = COORDINATED_UNIVERSAL_TIME_OFFSET ( 2, 0, .AHEAD. ) ;
#66 = CARTESIAN_POINT ( 'NONE',  ( 12.69999999999999900, 2.442490654175340100E-015, 4.000000000000000000 ) ) ;
#67 = EDGE_CURVE ( 'NONE', #58, #38, #77, .T. ) ;
#68 = CIRCLE ( 'NONE', #211, 261.8000000000000100 ) ;
#69 = CARTESIAN_POINT ( 'NONE',  ( -1.401056765894629100E-013, -12.85227818008619500, 0.3156621409579063500 ) ) ;
#70 = CARTESIAN_POINT ( 'NONE',  ( 12.76073495789048600, -12.85227818008619800, 0.6272169828637154100 ) ) ;
#71 = CARTESIAN_POINT ( 'NONE',  ( 12.78127865377369000, 4.287539158552331000, 0.2067510579010614400 ) ) ;
#72 = APPROVAL_PERSON_ORGANIZATION ( #113, #27, #105 ) ;
#73 = DIRECTION ( 'NONE',  ( 0.0000000000000000000, 0.0000000000000000000, 1.000000000000000000 ) ) ;
#74 = VERTEX_POINT ( 'NONE', #84 ) ;
#75 = DIRECTION ( 'NONE',  ( -0.0000000000000000000, -0.0000000000000000000, -1.000000000000000000 ) ) ;
#76 = PRODUCT_DEFINITION_SHAPE ( 'NONE', 'NONE',  #6 ) ;
#77 = LINE ( 'NONE', #25, #18 ) ;
#78 = AXIS2_PLACEMENT_3D ( 'NONE', #176, #75, #195 ) ;
#79 = PERSON_AND_ORGANIZATION_ROLE ( 'design_supplier' ) ;
#80 = ORIENTED_EDGE ( 'NONE', *, *, #205, .T. ) ;
#81 = CIRCLE ( 'NONE', #61, 12.69999999999999900 ) ;
#82 = CALENDAR_DATE ( 2018, 13, 12 ) ;
#83 = DIRECTION ( 'NONE',  ( -0.0000000000000000000, -0.0000000000000000000, -1.000000000000000000 ) ) ;
#84 = CARTESIAN_POINT ( 'NONE',  ( -1.400749689059266700E-013, -12.69999999999990300, 0.3082219265775864000 ) ) ;
#85 = ORIENTED_EDGE ( 'NONE', *, *, #162, .T. ) ;
#86 = DIRECTION ( 'NONE',  ( -0.0000000000000000000, -0.0000000000000000000, -1.000000000000000000 ) ) ;
#87 = CARTESIAN_POINT ( 'NONE',  ( 8.510114422728005200, 12.85227818008615100, 0.4195343850479377200 ) ) ;
#88 = CARTESIAN_POINT ( 'NONE',  ( -8.523814981763917900, -4.287539158552375400, -0.001265891199625675300 ) ) ;
#89 = CARTESIAN_POINT ( 'NONE',  ( 4.255691130166687800, 12.85227818008615100, 0.3156621409579045700 ) ) ;
#90 = ORIENTED_EDGE ( 'NONE', *, *, #227, .T. ) ;
#91 = PERSON_AND_ORGANIZATION ( #138, #150 ) ;
#92 = FACE_OUTER_BOUND ( 'NONE', #55, .T. ) ;
#93 = CC_DESIGN_PERSON_AND_ORGANIZATION_ASSIGNMENT ( #169, #159, ( #204 ) ) ;
#94 = EDGE_CURVE ( 'NONE', #5, #119, #81, .T. ) ;
#95 = PRODUCT_RELATED_PRODUCT_CATEGORY ( 'detail', '', ( #41 ) ) ;
#96 = DATE_AND_TIME ( #141, #7 ) ;
#97 = ORIENTED_EDGE ( 'NONE', *, *, #44, .T. ) ;
#98 = ORIENTED_EDGE ( 'NONE', *, *, #20, .T. ) ;
#99 = CC_DESIGN_APPROVAL ( #27, ( #109 ) ) ;
#100 = DIRECTION ( 'NONE',  ( 1.000000000000000000, 0.0000000000000000000, 0.0000000000000000000 ) ) ;
#101 = CALENDAR_DATE ( 2018, 13, 12 ) ;
#102 = CARTESIAN_POINT ( 'NONE',  ( -1.343995054341872700E-013, 12.85227818008615200, 0.3156621409579063500 ) ) ;
#103 = CARTESIAN_POINT ( 'NONE',  ( 4.262542430239879100, 4.287539158552333700, -0.1053053607512434000 ) ) ;
#104 = PERSON_AND_ORGANIZATION ( #138, #150 ) ;
#105 = APPROVAL_ROLE ( '' ) ;
#106 = APPLICATION_CONTEXT ( 'configuration controlled 3d designs of mechanical parts and assemblies' ) ;
#107 = UNCERTAINTY_MEASURE_WITH_UNIT (LENGTH_MEASURE( 1.000000000000000100E-005 ), #139, 'distance_accuracy_value', 'NONE');
#108 = LOCAL_TIME ( 17, 49, 59.00000000000000000, #62 ) ;
#109 = PRODUCT_DEFINITION_FORMATION_WITH_SPECIFIED_SOURCE ( 'ANY', '', #41, .NOT_KNOWN. ) ;
#110 = APPROVAL ( #19, 'UNSPECIFIED' ) ;
#111 = CIRCLE ( 'NONE', #167, 12.69999999999999900 ) ;
#112 = CC_DESIGN_PERSON_AND_ORGANIZATION_ASSIGNMENT ( #91, #196, ( #109 ) ) ;
#113 = PERSON_AND_ORGANIZATION ( #138, #150 ) ;
#114 = DIRECTION ( 'NONE',  ( 1.000000000000000000, 0.0000000000000000000, 0.0000000000000000000 ) ) ;
#115 = LINE ( 'NONE', #133, #63 ) ;
#116 = DIRECTION ( 'NONE',  ( 1.000000000000000000, 0.0000000000000000000, 0.0000000000000000000 ) ) ;
#117 = CARTESIAN_POINT ( 'NONE',  ( 12.78127865377368800, -4.287539158552377200, 0.2067510579010618800 ) ) ;
#118 = CARTESIAN_POINT ( 'NONE',  ( 4.996003610813200500E-016, 2.442490654175340100E-015, 4.000000000000000000 ) ) ;
#119 = VERTEX_POINT ( 'NONE', #149 ) ;
#120 = DIRECTION ( 'NONE',  ( 1.000000000000000000, 0.0000000000000000000, 0.0000000000000000000 ) ) ;
#121 = PERSON_AND_ORGANIZATION_ROLE ( 'design_owner' ) ;
#122 = CC_DESIGN_APPROVAL ( #110, ( #204 ) ) ;
#123 = LOCAL_TIME ( 17, 49, 59.00000000000000000, #65 ) ;
#124 = SECURITY_CLASSIFICATION_LEVEL ( 'unclassified' ) ;
#125 = COORDINATED_UNIVERSAL_TIME_OFFSET ( 2, 0, .AHEAD. ) ;
#126 = VERTEX_POINT ( 'NONE', #66 ) ;
#127 = ADVANCED_BREP_SHAPE_REPRESENTATION ( '110-1234E UVFS pl-cx 25.4 F550', ( #202, #3 ), #200 ) ;
#128 = CARTESIAN_POINT ( 'NONE',  ( -12.69999999999999900, 3.997792089092478900E-015, 4.000000000000000000 ) ) ;
#129 = ORIENTED_EDGE ( 'NONE', *, *, #67, .F. ) ;
#130 = CARTESIAN_POINT ( 'NONE',  ( -12.69999999999999900, 3.997792089092478900E-015, 0.3082219265775830200 ) ) ;
#131 = CARTESIAN_POINT ( 'NONE',  ( -8.510114422728037200, 12.85227818008615400, 0.4195343850479530400 ) ) ;
#132 = CALENDAR_DATE ( 2018, 13, 12 ) ;
#133 = CARTESIAN_POINT ( 'NONE',  ( 12.69999999999999900, 2.442490654175340100E-015, 0.3082219265775830200 ) ) ;
#134 = CC_DESIGN_PERSON_AND_ORGANIZATION_ASSIGNMENT ( #10, #79, ( #109 ) ) ;
#135 = CARTESIAN_POINT ( 'NONE',  ( -2.046973701652632400E-013, -12.85227818008619700, 0.3156621409579182200 ) ) ;
#136 = DESIGN_CONTEXT ( 'detailed design', #106, 'design' ) ;
#137 = EDGE_CURVE ( 'NONE', #126, #38, #24, .T. ) ;
#138 = PERSON ( 'UNSPECIFIED', 'UNSPECIFIED', 'UNSPECIFIED', ('UNSPECIFIED'), ('UNSPECIFIED'), ('UNSPECIFIED') ) ;
#139 =( LENGTH_UNIT ( ) NAMED_UNIT ( * ) SI_UNIT ( .MILLI., .METRE. ) );
#140 = CARTESIAN_POINT ( 'NONE',  ( 0.0000000000000000000, 0.0000000000000000000, 0.0000000000000000000 ) ) ;
#141 = CALENDAR_DATE ( 2018, 13, 12 ) ;
#142 = ORIENTED_EDGE ( 'NONE', *, *, #20, .F. ) ;
#143 = APPROVAL_DATE_TIME ( #52, #110 ) ;
#144 = AXIS2_PLACEMENT_3D ( 'NONE', #234, #213, #31 ) ;
#145 = DATE_AND_TIME ( #132, #108 ) ;
#146 = ORIENTED_EDGE ( 'NONE', *, *, #46, .F. ) ;
#147 = ORIENTED_EDGE ( 'NONE', *, *, #67, .T. ) ;
#148 = AXIS2_PLACEMENT_3D ( 'NONE', #64, #225, #228 ) ;
#149 = CARTESIAN_POINT ( 'NONE',  ( 12.69999999999999900, 2.442490654175340100E-015, 0.3082219265775830200 ) ) ;
#150 = ORGANIZATION ( 'UNSPECIFIED', 'UNSPECIFIED', '' ) ;
#151 = CARTESIAN_POINT ( 'NONE',  ( -12.76073495789038900, -12.85227818008619300, 0.6272169828637208500 ) ) ;
#152 = CC_DESIGN_SECURITY_CLASSIFICATION ( #204, ( #109 ) ) ;
#153 = CARTESIAN_POINT ( 'NONE',  ( 4.255691130166681500, -12.85227818008619500, 0.3156621409579045700 ) ) ;
#154 = CARTESIAN_POINT ( 'NONE',  ( 4.996003610813200500E-016, 2.442490654175340100E-015, 0.3082219265775830200 ) ) ;
#155 = CARTESIAN_POINT ( 'NONE',  ( -4.262542430240066500, -4.287539158552376300, -0.1053053607512263900 ) ) ;
#156 = DATE_AND_TIME ( #82, #173 ) ;
#157 = CARTESIAN_POINT ( 'NONE',  ( 8.523814981763875300, -4.287539158552378100, -0.001265891199640935400 ) ) ;
#158 = PERSON_AND_ORGANIZATION_ROLE ( 'creator' ) ;
#159 = PERSON_AND_ORGANIZATION_ROLE ( 'classification_officer' ) ;
#160 = MECHANICAL_CONTEXT ( 'NONE', #4, 'mechanical' ) ;
#161 = PERSON_AND_ORGANIZATION ( #138, #150 ) ;
#162 = EDGE_CURVE ( 'NONE', #58, #5, #40, .T. ) ;
#163 = DIRECTION ( 'NONE',  ( 1.000000000000000000, 0.0000000000000000000, 0.0000000000000000000 ) ) ;
#164 = DATE_TIME_ROLE ( 'classification_date' ) ;
#165 = ORIENTED_EDGE ( 'NONE', *, *, #137, .F. ) ;
#166 =( BOUNDED_SURFACE ( )  B_SPLINE_SURFACE ( 3, 3, ( 
 ( #69, #153, #174, #70 ),
 ( #35, #56, #157, #117 ),
 ( #13, #103, #193, #71 ),
 ( #102, #89, #87, #34 ) ),
 .UNSPECIFIED., .F., .F., .F. ) 
 B_SPLINE_SURFACE_WITH_KNOTS ( ( 4, 4 ),
 ( 4, 4 ),
 ( 0.0000000000000000000, 1.000000000000000000 ),
 ( 0.0000000000000000000, 1.000000000000000000 ),
 .UNSPECIFIED. ) 
 GEOMETRIC_REPRESENTATION_ITEM ( )  RATIONAL_B_SPLINE_SURFACE ( (
 ( 1.000000000000000000, 0.9998013894701269800, 0.9998013894701269800, 1.000000000000000000),
 ( 0.9991961748384060600, 0.9989977239566743000, 0.9989977239566743000, 0.9991961748384060600),
 ( 0.9991961748384060600, 0.9989977239566743000, 0.9989977239566743000, 0.9991961748384060600),
 ( 1.000000000000000000, 0.9998013894701269800, 0.9998013894701269800, 1.000000000000000000) ) ) 
 REPRESENTATION_ITEM ( '' )  SURFACE ( )  );
#167 = AXIS2_PLACEMENT_3D ( 'NONE', #206, #47, #116 ) ;
#168 = ADVANCED_FACE ( 'NONE', ( #14 ), #207, .T. ) ;
#169 = PERSON_AND_ORGANIZATION ( #138, #150 ) ;
#170 = LOCAL_TIME ( 17, 49, 59.00000000000000000, #217 ) ;
#171 = CIRCLE ( 'NONE', #78, 12.69999999999999900 ) ;
#172 = CARTESIAN_POINT ( 'NONE',  ( 4.996003610813200500E-016, 2.442490654175340100E-015, 4.000000000000000000 ) ) ;
#173 = LOCAL_TIME ( 17, 49, 59.00000000000000000, #125 ) ;
#174 = CARTESIAN_POINT ( 'NONE',  ( 8.510114422727998100, -12.85227818008619500, 0.4195343850479377700 ) ) ;
#175 = AXIS2_PLACEMENT_3D ( 'NONE', #214, #54, #233 ) ;
#176 = CARTESIAN_POINT ( 'NONE',  ( 4.996003610813200500E-016, 2.442490654175340100E-015, 0.3082219265775830200 ) ) ;
#177 = SHAPE_DEFINITION_REPRESENTATION ( #76, #127 ) ;
#178 = CARTESIAN_POINT ( 'NONE',  ( -8.510114422728044300, -12.85227818008619100, 0.4195343850479530400 ) ) ;
#179 = CC_DESIGN_DATE_AND_TIME_ASSIGNMENT ( #145, #37, ( #6 ) ) ;
#180 = DIRECTION ( 'NONE',  ( 0.0000000000000000000, 0.0000000000000000000, 1.000000000000000000 ) ) ;
#181 = DIRECTION ( 'NONE',  ( 1.000000000000000000, 0.0000000000000000000, 0.0000000000000000000 ) ) ;
#182 = AXIS2_PLACEMENT_3D ( 'NONE', #172, #83, #114 ) ;
#183 = APPROVAL_STATUS ( 'not_yet_approved' ) ;
#184 = APPROVAL_PERSON_ORGANIZATION ( #53, #110, #59 ) ;
#185 = APPROVAL ( #183, 'UNSPECIFIED' ) ;
#186 = ADVANCED_FACE ( 'NONE', ( #209 ), #166, .T. ) ;
#187 = AXIS2_PLACEMENT_3D ( 'NONE', #118, #15, #120 ) ;
#188 = CALENDAR_DATE ( 2018, 13, 12 ) ;
#189 = CARTESIAN_POINT ( 'NONE',  ( 4.996003610813200500E-016, 2.442490654175340100E-015, 0.3082219265775830200 ) ) ;
#190 = CARTESIAN_POINT ( 'NONE',  ( -12.78127865377358100, 4.287539158552334600, 0.2067510579010668800 ) ) ;
#191 = ORIENTED_EDGE ( 'NONE', *, *, #46, .T. ) ;
#192 = CARTESIAN_POINT ( 'NONE',  ( -1.977584762613560100E-013, 12.85227818008615100, 0.3156621409579183400 ) ) ;
#193 = CARTESIAN_POINT ( 'NONE',  ( 8.523814981763875300, 4.287539158552332800, -0.001265891199641369300 ) ) ;
#194 = CC_DESIGN_APPROVAL ( #185, ( #6 ) ) ;
#195 = DIRECTION ( 'NONE',  ( 1.000000000000000000, 0.0000000000000000000, 0.0000000000000000000 ) ) ;
#196 = PERSON_AND_ORGANIZATION_ROLE ( 'creator' ) ;
#197 = APPLICATION_PROTOCOL_DEFINITION ( 'international standard', 'config_control_design', 1994, #106 ) ;
#198 = APPROVAL_PERSON_ORGANIZATION ( #161, #185, #216 ) ;
#199 = EDGE_LOOP ( 'NONE', ( #80, #98, #26 ) ) ;
#200 =( GEOMETRIC_REPRESENTATION_CONTEXT ( 3 ) GLOBAL_UNCERTAINTY_ASSIGNED_CONTEXT ( ( #107 ) ) GLOBAL_UNIT_ASSIGNED_CONTEXT ( ( #139, #1, #17 ) ) REPRESENTATION_CONTEXT ( 'NONE', 'WORKASPACE' ) );
#201 = FACE_OUTER_BOUND ( 'NONE', #49, .T. ) ;
#202 = MANIFOLD_SOLID_BREP ( 'Imported1', #231 ) ;
#203 = FACE_OUTER_BOUND ( 'NONE', #235, .T. ) ;
#204 = SECURITY_CLASSIFICATION ( '', '', #124 ) ;
#205 = EDGE_CURVE ( 'NONE', #119, #74, #171, .T. ) ;
#206 = CARTESIAN_POINT ( 'NONE',  ( 4.996003610813200500E-016, 2.442490654175340100E-015, 0.3082219265775830200 ) ) ;
#207 = PLANE ( 'NONE',  #175 ) ;
#208 = CARTESIAN_POINT ( 'NONE',  ( -2.842170943040400100E-014, -2.842170943040400100E-014, 261.8000000000000100 ) ) ;
#209 = FACE_OUTER_BOUND ( 'NONE', #199, .T. ) ;
#210 = CARTESIAN_POINT ( 'NONE',  ( -8.523814981763914400, 4.287539158552335500, -0.001265891199626081800 ) ) ;
#211 = AXIS2_PLACEMENT_3D ( 'NONE', #208, #28, #50 ) ;
#212 = CYLINDRICAL_SURFACE ( 'NONE', #215, 12.69999999999999900 ) ;
#213 = DIRECTION ( 'NONE',  ( -0.0000000000000000000, -0.0000000000000000000, -1.000000000000000000 ) ) ;
#214 = CARTESIAN_POINT ( 'NONE',  ( 0.0000000000000000000, 26.11199999999999800, 4.000000000000000000 ) ) ;
#215 = AXIS2_PLACEMENT_3D ( 'NONE', #154, #180, #181 ) ;
#216 = APPROVAL_ROLE ( '' ) ;
#217 = COORDINATED_UNIVERSAL_TIME_OFFSET ( 2, 0, .AHEAD. ) ;
#218 = PERSON_AND_ORGANIZATION ( #138, #150 ) ;
#219 = ORIENTED_EDGE ( 'NONE', *, *, #227, .F. ) ;
#220 =( BOUNDED_SURFACE ( )  B_SPLINE_SURFACE ( 3, 3, ( 
 ( #151, #178, #32, #135 ),
 ( #51, #88, #155, #57 ),
 ( #190, #210, #12, #229 ),
 ( #11, #131, #232, #192 ) ),
 .UNSPECIFIED., .F., .F., .F. ) 
 B_SPLINE_SURFACE_WITH_KNOTS ( ( 4, 4 ),
 ( 4, 4 ),
 ( 0.0000000000000000000, 1.000000000000000000 ),
 ( 0.0000000000000000000, 1.000000000000000000 ),
 .UNSPECIFIED. ) 
 GEOMETRIC_REPRESENTATION_ITEM ( )  RATIONAL_B_SPLINE_SURFACE ( (
 ( 1.000000000000000000, 0.9998013894701269800, 0.9998013894701269800, 1.000000000000000000),
 ( 0.9991961748384060600, 0.9989977239566743000, 0.9989977239566743000, 0.9991961748384060600),
 ( 0.9991961748384060600, 0.9989977239566743000, 0.9989977239566743000, 0.9991961748384060600),
 ( 1.000000000000000000, 0.9998013894701269800, 0.9998013894701269800, 1.000000000000000000) ) ) 
 REPRESENTATION_ITEM ( '' )  SURFACE ( )  );
#221 = ADVANCED_FACE ( 'NONE', ( #201 ), #220, .T. ) ;
#222 = ORIENTED_EDGE ( 'NONE', *, *, #205, .F. ) ;
#223 = CC_DESIGN_DATE_AND_TIME_ASSIGNMENT ( #96, #164, ( #204 ) ) ;
#224 = ADVANCED_FACE ( 'NONE', ( #203 ), #212, .T. ) ;
#225 = DIRECTION ( 'NONE',  ( 0.0000000000000000000, 0.0000000000000000000, 1.000000000000000000 ) ) ;
#226 = ORIENTED_EDGE ( 'NONE', *, *, #94, .F. ) ;
#227 = EDGE_CURVE ( 'NONE', #119, #126, #115, .T. ) ;
#228 = DIRECTION ( 'NONE',  ( 1.000000000000000000, 0.0000000000000000000, 0.0000000000000000000 ) ) ;
#229 = CARTESIAN_POINT ( 'NONE',  ( -1.977584762613560100E-013, 4.287539158552332800, -0.1053053607512294800 ) ) ;
#230 = APPROVAL_DATE_TIME ( #30, #27 ) ;
#231 = CLOSED_SHELL ( 'NONE', ( #186, #8, #221, #224, #168 ) ) ;
#232 = CARTESIAN_POINT ( 'NONE',  ( -4.255691130166872500, 12.85227818008615200, 0.3156621409579211700 ) ) ;
#233 = DIRECTION ( 'NONE',  ( 1.000000000000000000, 0.0000000000000000000, -0.0000000000000000000 ) ) ;
#234 = CARTESIAN_POINT ( 'NONE',  ( 4.996003610813200500E-016, 2.442490654175340100E-015, 0.3082219265775830200 ) ) ;
#235 = EDGE_LOOP ( 'NONE', ( #129, #16, #222, #90, #43 ) ) ;
ENDSEC;
END-ISO-10303-21;
