ISO-10303-21;
HEADER;
FILE_DESCRIPTION (( 'STEP AP203' ),
    '1' );
FILE_NAME ('110-1233E UVFS pl-cx 25.4 F500.STEP',
    '2018-12-13T14:59:52',
    ( '' ),
    ( '' ),
    'SwSTEP 2.0',
    'SolidWorks 2017',
    '' );
FILE_SCHEMA (( 'CONFIG_CONTROL_DESIGN' ));
ENDSEC;

DATA;
#1 = ADVANCED_FACE ( 'NONE', ( #177 ), #100, .T. ) ;
#2 = DIRECTION ( 'NONE',  ( -0.0000000000000000000, -0.0000000000000000000, -1.000000000000000000 ) ) ;
#3 = CARTESIAN_POINT ( 'NONE',  ( 12.78234696557838900, -4.288255581136351900, 0.2274637098745891700 ) ) ;
#4 = CARTESIAN_POINT ( 'NONE',  ( -1.040834085586084100E-014, 4.288255581136419400, -0.1158697100792344400 ) ) ;
#5 = DIRECTION ( 'NONE',  ( 1.000000000000000000, 0.0000000000000000000, 0.0000000000000000000 ) ) ;
#6 = ORIENTED_EDGE ( 'NONE', *, *, #65, .F. ) ;
#7 = CC_DESIGN_SECURITY_CLASSIFICATION ( #32, ( #167 ) ) ;
#8 =( NAMED_UNIT ( * ) SI_UNIT ( $, .STERADIAN. ) SOLID_ANGLE_UNIT ( ) );
#9 = CARTESIAN_POINT ( 'NONE',  ( 4.996003610813200500E-016, 2.442490654175340100E-015, 0.3390860911285640800 ) ) ;
#10 = SECURITY_CLASSIFICATION_LEVEL ( 'unclassified' ) ;
#11 = CARTESIAN_POINT ( 'NONE',  ( 5.684341886080800200E-014, 4.263256414560599900E-014, 238.0000000000000300 ) ) ;
#12 = CARTESIAN_POINT ( 'NONE',  ( -4.255051452791827100, -12.85225256879558300, 0.3472709941922978400 ) ) ;
#13 = PRODUCT_DEFINITION_SHAPE ( 'NONE', 'NONE',  #176 ) ;
#14 = APPROVAL_DATE_TIME ( #137, #117 ) ;
#15 = CLOSED_SHELL ( 'NONE', ( #127, #218, #202, #1, #126 ) ) ;
#16 = ORIENTED_EDGE ( 'NONE', *, *, #154, .F. ) ;
#17 = VECTOR ( 'NONE', #164, 1000.000000000000000 ) ;
#18 = EDGE_LOOP ( 'NONE', ( #58, #25, #215 ) ) ;
#19 = DATE_AND_TIME ( #124, #228 ) ;
#20 = CC_DESIGN_PERSON_AND_ORGANIZATION_ASSIGNMENT ( #175, #168, ( #179 ) ) ;
#21 = CARTESIAN_POINT ( 'NONE',  ( -1.214306433183765000E-014, 12.85225256879564900, 0.3472709941922966800 ) ) ;
#22 = CARTESIAN_POINT ( 'NONE',  ( 8.525150424188995000, 4.288255581136422900, -0.001397722743939146700 ) ) ;
#23 = COORDINATED_UNIVERSAL_TIME_OFFSET ( 2, 0, .AHEAD. ) ;
#24 = APPLICATION_PROTOCOL_DEFINITION ( 'international standard', 'config_control_design', 1994, #45 ) ;
#25 = ORIENTED_EDGE ( 'NONE', *, *, #139, .T. ) ;
#26 = DATE_TIME_ROLE ( 'creation_date' ) ;
#27 = DIRECTION ( 'NONE',  ( 1.000000000000000000, 0.0000000000000000000, 0.0000000000000000000 ) ) ;
#28 = CARTESIAN_POINT ( 'NONE',  ( 4.520528418708684600E-014, 12.85225256879564900, 0.3472709941922946800 ) ) ;
#29 = APPROVAL_STATUS ( 'not_yet_approved' ) ;
#30 = CARTESIAN_POINT ( 'NONE',  ( 4.996003610813200500E-016, 2.442490654175340100E-015, 4.000000000000000000 ) ) ;
#31 = COORDINATED_UNIVERSAL_TIME_OFFSET ( 2, 0, .AHEAD. ) ;
#32 = SECURITY_CLASSIFICATION ( '', '', #10 ) ;
#33 = CC_DESIGN_APPROVAL ( #191, ( #176 ) ) ;
#34 = DATE_AND_TIME ( #78, #83 ) ;
#35 = FACE_OUTER_BOUND ( 'NONE', #196, .T. ) ;
#36 = PERSON_AND_ORGANIZATION ( #178, #50 ) ;
#37 = CARTESIAN_POINT ( 'NONE',  ( 4.255051452791794200, -12.85225256879558000, 0.3472709941922945100 ) ) ;
#38 = CARTESIAN_POINT ( 'NONE',  ( 12.78234696557838700, 4.288255581136422900, 0.2274637098745898900 ) ) ;
#39 = CARTESIAN_POINT ( 'NONE',  ( 0.0000000000000000000, 0.0000000000000000000, 0.0000000000000000000 ) ) ;
#40 = DIRECTION ( 'NONE',  ( 0.0000000000000000000, 0.0000000000000000000, 1.000000000000000000 ) ) ;
#41 = CARTESIAN_POINT ( 'NONE',  ( -12.78234696557858300, -4.288255581136358100, 0.2274637098746120400 ) ) ;
#42 = ORIENTED_EDGE ( 'NONE', *, *, #65, .T. ) ;
#43 = EDGE_CURVE ( 'NONE', #76, #125, #222, .T. ) ;
#44 = CARTESIAN_POINT ( 'NONE',  ( 12.75748501419694800, 12.85225256879565200, 0.6899366229480334800 ) ) ;
#45 = APPLICATION_CONTEXT ( 'configuration controlled 3d designs of mechanical parts and assemblies' ) ;
#46 = PERSON_AND_ORGANIZATION ( #178, #50 ) ;
#47 = APPROVAL ( #115, 'UNSPECIFIED' ) ;
#48 = FACE_OUTER_BOUND ( 'NONE', #107, .T. ) ;
#49 = VERTEX_POINT ( 'NONE', #220 ) ;
#50 = ORGANIZATION ( 'UNSPECIFIED', 'UNSPECIFIED', '' ) ;
#51 = FACE_OUTER_BOUND ( 'NONE', #18, .T. ) ;
#52 = CC_DESIGN_PERSON_AND_ORGANIZATION_ASSIGNMENT ( #106, #128, ( #32 ) ) ;
#53 = PERSON_AND_ORGANIZATION ( #178, #50 ) ;
#54 = COORDINATED_UNIVERSAL_TIME_OFFSET ( 2, 0, .AHEAD. ) ;
#55 = CARTESIAN_POINT ( 'NONE',  ( -4.255051452791834200, 12.85225256879564700, 0.3472709941922978400 ) ) ;
#56 = CARTESIAN_POINT ( 'NONE',  ( 4.996003610813200500E-016, 2.442490654175340100E-015, 0.3390860911285640800 ) ) ;
#57 = CARTESIAN_POINT ( 'NONE',  ( 4.263343751957898500, -4.288255581136352700, -0.1158697100792373500 ) ) ;
#58 = ORIENTED_EDGE ( 'NONE', *, *, #141, .T. ) ;
#59 =( LENGTH_UNIT ( ) NAMED_UNIT ( * ) SI_UNIT ( .MILLI., .METRE. ) );
#60 = CARTESIAN_POINT ( 'NONE',  ( -4.263343751957934000, -4.288255581136355400, -0.1158697100792342300 ) ) ;
#61 = APPROVAL_STATUS ( 'not_yet_approved' ) ;
#62 =( BOUNDED_SURFACE ( )  B_SPLINE_SURFACE ( 3, 3, ( 
 ( #84, #37, #166, #224 ),
 ( #130, #57, #204, #3 ),
 ( #89, #90, #22, #38 ),
 ( #28, #63, #226, #44 ) ),
 .UNSPECIFIED., .F., .F., .F. ) 
 B_SPLINE_SURFACE_WITH_KNOTS ( ( 4, 4 ),
 ( 4, 4 ),
 ( 0.0000000000000000000, 1.000000000000000000 ),
 ( 0.0000000000000000000, 1.000000000000000000 ),
 .UNSPECIFIED. ) 
 GEOMETRIC_REPRESENTATION_ITEM ( )  RATIONAL_B_SPLINE_SURFACE ( (
 ( 1.000000000000000000, 0.9997596441015668100, 0.9997596441015668100, 1.000000000000000000),
 ( 0.9990272521171084100, 0.9987871300243665900, 0.9987871300243665900, 0.9990272521171084100),
 ( 0.9990272521171084100, 0.9987871300243665900, 0.9987871300243665900, 0.9990272521171084100),
 ( 1.000000000000000000, 0.9997596441015668100, 0.9997596441015668100, 1.000000000000000000) ) ) 
 REPRESENTATION_ITEM ( '' )  SURFACE ( )  );
#63 = CARTESIAN_POINT ( 'NONE',  ( 4.255051452791788000, 12.85225256879565100, 0.3472709941922945100 ) ) ;
#64 = CALENDAR_DATE ( 2018, 13, 12 ) ;
#65 = EDGE_CURVE ( 'NONE', #49, #235, #99, .T. ) ;
#66 = CC_DESIGN_APPROVAL ( #47, ( #167 ) ) ;
#67 = CIRCLE ( 'NONE', #171, 12.69999999999999900 ) ;
#68 = EDGE_CURVE ( 'NONE', #76, #123, #182, .T. ) ;
#69 = DIRECTION ( 'NONE',  ( 1.000000000000000000, 0.0000000000000000000, 0.0000000000000000000 ) ) ;
#70 = APPROVAL_PERSON_ORGANIZATION ( #172, #47, #113 ) ;
#71 = CARTESIAN_POINT ( 'NONE',  ( 4.996003610813200500E-016, 2.442490654175340100E-015, 0.3390860911285640800 ) ) ;
#72 = CARTESIAN_POINT ( 'NONE',  ( 5.144458870220791100E-014, -12.69999999999973300, 0.3390860911285646900 ) ) ;
#73 = PERSON_AND_ORGANIZATION_ROLE ( 'design_supplier' ) ;
#74 = CARTESIAN_POINT ( 'NONE',  ( -12.75748501419714200, -12.85225256879558500, 0.6899366229480563600 ) ) ;
#75 = LOCAL_TIME ( 16, 59, 52.00000000000000000, #221 ) ;
#76 = VERTEX_POINT ( 'NONE', #161 ) ;
#77 = AXIS2_PLACEMENT_3D ( 'NONE', #85, #206, #92 ) ;
#78 = CALENDAR_DATE ( 2018, 13, 12 ) ;
#79 = CIRCLE ( 'NONE', #199, 12.69999999999999900 ) ;
#80 = ORIENTED_EDGE ( 'NONE', *, *, #174, .F. ) ;
#81 = UNCERTAINTY_MEASURE_WITH_UNIT (LENGTH_MEASURE( 1.000000000000000100E-005 ), #59, 'distance_accuracy_value', 'NONE');
#82 = EDGE_CURVE ( 'NONE', #123, #49, #159, .T. ) ;
#83 = LOCAL_TIME ( 16, 59, 52.00000000000000000, #23 ) ;
#84 = CARTESIAN_POINT ( 'NONE',  ( 5.148205994986260100E-014, -12.85225256879558100, 0.3472709941922946800 ) ) ;
#85 = CARTESIAN_POINT ( 'NONE',  ( 0.0000000000000000000, 26.11199999999999800, 4.000000000000000000 ) ) ;
#86 = CALENDAR_DATE ( 2018, 13, 12 ) ;
#87 = CARTESIAN_POINT ( 'NONE',  ( -12.78234696557858500, 4.288255581136416700, 0.2274637098746127300 ) ) ;
#88 = AXIS2_PLACEMENT_3D ( 'NONE', #119, #183, #163 ) ;
#89 = CARTESIAN_POINT ( 'NONE',  ( 4.727995974756628000E-014, 4.288255581136420200, -0.1158697100792364900 ) ) ;
#90 = CARTESIAN_POINT ( 'NONE',  ( 4.263343751957896700, 4.288255581136422000, -0.1158697100792366700 ) ) ;
#91 = CARTESIAN_POINT ( 'NONE',  ( -4.263343751957937600, 4.288255581136420200, -0.1158697100792332900 ) ) ;
#92 = DIRECTION ( 'NONE',  ( 1.000000000000000000, 0.0000000000000000000, -0.0000000000000000000 ) ) ;
#93 = CIRCLE ( 'NONE', #216, 12.69999999999999900 ) ;
#94 = ADVANCED_BREP_SHAPE_REPRESENTATION ( '110-1233E UVFS pl-cx 25.4 F500', ( #136, #131 ), #232 ) ;
#95 = EDGE_LOOP ( 'NONE', ( #80, #16 ) ) ;
#96 = APPROVAL_ROLE ( '' ) ;
#97 = CARTESIAN_POINT ( 'NONE',  ( -6.938893903907227600E-015, -4.288255581136355400, -0.1158697100792353600 ) ) ;
#98 = AXIS2_PLACEMENT_3D ( 'NONE', #109, #2, #180 ) ;
#99 = LINE ( 'NONE', #147, #17 ) ;
#100 = CYLINDRICAL_SURFACE ( 'NONE', #144, 12.69999999999999900 ) ;
#101 = ORIENTED_EDGE ( 'NONE', *, *, #154, .T. ) ;
#102 = AXIS2_PLACEMENT_3D ( 'NONE', #56, #145, #114 ) ;
#103 = SHAPE_DEFINITION_REPRESENTATION ( #13, #94 ) ;
#104 = CC_DESIGN_PERSON_AND_ORGANIZATION_ASSIGNMENT ( #46, #184, ( #176 ) ) ;
#105 = ORIENTED_EDGE ( 'NONE', *, *, #43, .T. ) ;
#106 = PERSON_AND_ORGANIZATION ( #178, #50 ) ;
#107 = EDGE_LOOP ( 'NONE', ( #200, #105, #101, #6, #112 ) ) ;
#108 = DESIGN_CONTEXT ( 'detailed design', #209, 'design' ) ;
#109 = CARTESIAN_POINT ( 'NONE',  ( 4.996003610813200500E-016, 2.442490654175340100E-015, 0.3390860911285640800 ) ) ;
#110 = DIRECTION ( 'NONE',  ( -0.0000000000000000000, -0.0000000000000000000, -1.000000000000000000 ) ) ;
#111 = DIRECTION ( 'NONE',  ( 0.0000000000000000000, 0.0000000000000000000, 1.000000000000000000 ) ) ;
#112 = ORIENTED_EDGE ( 'NONE', *, *, #82, .F. ) ;
#113 = APPROVAL_ROLE ( '' ) ;
#114 = DIRECTION ( 'NONE',  ( 1.000000000000000000, 0.0000000000000000000, 0.0000000000000000000 ) ) ;
#115 = APPROVAL_STATUS ( 'not_yet_approved' ) ;
#116 = CARTESIAN_POINT ( 'NONE',  ( -8.508568815511424100, -12.85225256879558300, 0.4615203309461954300 ) ) ;
#117 = APPROVAL ( #29, 'UNSPECIFIED' ) ;
#118 = DIRECTION ( 'NONE',  ( 1.000000000000000000, 0.0000000000000000000, 0.0000000000000000000 ) ) ;
#119 = CARTESIAN_POINT ( 'NONE',  ( 4.996003610813200500E-016, 2.442490654175340100E-015, 0.3390860911285640800 ) ) ;
#120 = EDGE_CURVE ( 'NONE', #138, #76, #67, .T. ) ;
#121 = DATE_AND_TIME ( #165, #217 ) ;
#122 = CC_DESIGN_PERSON_AND_ORGANIZATION_ASSIGNMENT ( #53, #189, ( #167 ) ) ;
#123 = VERTEX_POINT ( 'NONE', #219 ) ;
#124 = CALENDAR_DATE ( 2018, 13, 12 ) ;
#125 = VERTEX_POINT ( 'NONE', #223 ) ;
#126 = ADVANCED_FACE ( 'NONE', ( #142 ), #162, .T. ) ;
#127 = ADVANCED_FACE ( 'NONE', ( #51 ), #62, .T. ) ;
#128 = PERSON_AND_ORGANIZATION_ROLE ( 'classification_officer' ) ;
#129 = DIRECTION ( 'NONE',  ( 0.0000000000000000000, 0.0000000000000000000, 1.000000000000000000 ) ) ;
#130 = CARTESIAN_POINT ( 'NONE',  ( 4.937425555697295100E-014, -4.288255581136354500, -0.1158697100792372000 ) ) ;
#131 = AXIS2_PLACEMENT_3D ( 'NONE', #39, #129, #118 ) ;
#132 = CARTESIAN_POINT ( 'NONE',  ( -8.508568815511431200, 12.85225256879564700, 0.4615203309461954300 ) ) ;
#133 = CARTESIAN_POINT ( 'NONE',  ( -5.204170427930421300E-015, -12.85225256879558100, 0.3472709941922966800 ) ) ;
#134 = DATE_TIME_ROLE ( 'classification_date' ) ;
#135 = DIRECTION ( 'NONE',  ( -0.0000000000000000000, -0.0000000000000000000, -1.000000000000000000 ) ) ;
#136 = MANIFOLD_SOLID_BREP ( 'Imported1', #15 ) ;
#137 = DATE_AND_TIME ( #64, #75 ) ;
#138 = VERTEX_POINT ( 'NONE', #72 ) ;
#139 = EDGE_CURVE ( 'NONE', #138, #123, #187, .T. ) ;
#140 =( BOUNDED_SURFACE ( )  B_SPLINE_SURFACE ( 3, 3, ( 
 ( #74, #116, #12, #133 ),
 ( #41, #211, #60, #97 ),
 ( #87, #225, #91, #4 ),
 ( #151, #132, #55, #21 ) ),
 .UNSPECIFIED., .F., .F., .F. ) 
 B_SPLINE_SURFACE_WITH_KNOTS ( ( 4, 4 ),
 ( 4, 4 ),
 ( 0.0000000000000000000, 1.000000000000000000 ),
 ( 0.0000000000000000000, 1.000000000000000000 ),
 .UNSPECIFIED. ) 
 GEOMETRIC_REPRESENTATION_ITEM ( )  RATIONAL_B_SPLINE_SURFACE ( (
 ( 1.000000000000000000, 0.9997596441015668100, 0.9997596441015668100, 1.000000000000000000),
 ( 0.9990272521171084100, 0.9987871300243665900, 0.9987871300243665900, 0.9990272521171084100),
 ( 0.9990272521171084100, 0.9987871300243665900, 0.9987871300243665900, 0.9990272521171084100),
 ( 1.000000000000000000, 0.9997596441015668100, 0.9997596441015668100, 1.000000000000000000) ) ) 
 REPRESENTATION_ITEM ( '' )  SURFACE ( )  );
#141 = EDGE_CURVE ( 'NONE', #49, #138, #79, .T. ) ;
#142 = FACE_OUTER_BOUND ( 'NONE', #95, .T. ) ;
#143 = ORIENTED_EDGE ( 'NONE', *, *, #68, .T. ) ;
#144 = AXIS2_PLACEMENT_3D ( 'NONE', #71, #111, #201 ) ;
#145 = DIRECTION ( 'NONE',  ( -0.0000000000000000000, -0.0000000000000000000, -1.000000000000000000 ) ) ;
#146 = DATE_AND_TIME ( #86, #198 ) ;
#147 = CARTESIAN_POINT ( 'NONE',  ( 12.69999999999999900, 2.442490654175340100E-015, 0.3390860911285640800 ) ) ;
#148 = CARTESIAN_POINT ( 'NONE',  ( 12.69999999999999900, 2.442490654175340100E-015, 4.000000000000000000 ) ) ;
#149 = CARTESIAN_POINT ( 'NONE',  ( 4.996003610813200500E-016, 2.442490654175340100E-015, 0.3390860911285640800 ) ) ;
#150 = CIRCLE ( 'NONE', #213, 12.69999999999999900 ) ;
#151 = CARTESIAN_POINT ( 'NONE',  ( -12.75748501419714900, 12.85225256879564500, 0.6899366229480563600 ) ) ;
#152 = ORIENTED_EDGE ( 'NONE', *, *, #43, .F. ) ;
#153 =( NAMED_UNIT ( * ) PLANE_ANGLE_UNIT ( ) SI_UNIT ( $, .RADIAN. ) );
#154 = EDGE_CURVE ( 'NONE', #125, #235, #150, .T. ) ;
#155 = VECTOR ( 'NONE', #40, 1000.000000000000000 ) ;
#156 = ORIENTED_EDGE ( 'NONE', *, *, #174, .T. ) ;
#157 = CC_DESIGN_DATE_AND_TIME_ASSIGNMENT ( #34, #26, ( #176 ) ) ;
#158 = ORIENTED_EDGE ( 'NONE', *, *, #120, .F. ) ;
#159 = CIRCLE ( 'NONE', #98, 12.69999999999999900 ) ;
#160 = PRODUCT_RELATED_PRODUCT_CATEGORY ( 'detail', '', ( #179 ) ) ;
#161 = CARTESIAN_POINT ( 'NONE',  ( -12.69999999999999900, 3.997792089092478900E-015, 0.3390860911285640800 ) ) ;
#162 = PLANE ( 'NONE',  #77 ) ;
#163 = DIRECTION ( 'NONE',  ( 1.000000000000000000, 0.0000000000000000000, 0.0000000000000000000 ) ) ;
#164 = DIRECTION ( 'NONE',  ( 0.0000000000000000000, 0.0000000000000000000, 1.000000000000000000 ) ) ;
#165 = CALENDAR_DATE ( 2018, 13, 12 ) ;
#166 = CARTESIAN_POINT ( 'NONE',  ( 8.508568815511312200, -12.85225256879558000, 0.4615203309461823900 ) ) ;
#167 = PRODUCT_DEFINITION_FORMATION_WITH_SPECIFIED_SOURCE ( 'ANY', '', #179, .NOT_KNOWN. ) ;
#168 = PERSON_AND_ORGANIZATION_ROLE ( 'design_owner' ) ;
#169 = DIRECTION ( 'NONE',  ( -0.0000000000000000000, -0.0000000000000000000, -1.000000000000000000 ) ) ;
#170 = DIRECTION ( 'NONE',  ( 1.000000000000000000, 2.441897141834629800E-016, -3.576540790375509800E-017 ) ) ;
#171 = AXIS2_PLACEMENT_3D ( 'NONE', #149, #110, #69 ) ;
#172 = PERSON_AND_ORGANIZATION ( #178, #50 ) ;
#173 = COORDINATED_UNIVERSAL_TIME_OFFSET ( 2, 0, .AHEAD. ) ;
#174 = EDGE_CURVE ( 'NONE', #235, #125, #93, .T. ) ;
#175 = PERSON_AND_ORGANIZATION ( #178, #50 ) ;
#176 = PRODUCT_DEFINITION ( 'UNKNOWN', '', #167, #108 ) ;
#177 = FACE_OUTER_BOUND ( 'NONE', #234, .T. ) ;
#178 = PERSON ( 'UNSPECIFIED', 'UNSPECIFIED', 'UNSPECIFIED', ('UNSPECIFIED'), ('UNSPECIFIED'), ('UNSPECIFIED') ) ;
#179 = PRODUCT ( '110-1233E UVFS pl-cx 25.4 F500', '110-1233E UVFS pl-cx 25.4 F500', '', ( #203 ) ) ;
#180 = DIRECTION ( 'NONE',  ( 1.000000000000000000, 0.0000000000000000000, 0.0000000000000000000 ) ) ;
#181 = AXIS2_PLACEMENT_3D ( 'NONE', #11, #170, #192 ) ;
#182 = CIRCLE ( 'NONE', #102, 12.69999999999999900 ) ;
#183 = DIRECTION ( 'NONE',  ( 0.0000000000000000000, 0.0000000000000000000, 1.000000000000000000 ) ) ;
#184 = PERSON_AND_ORGANIZATION_ROLE ( 'creator' ) ;
#185 = CARTESIAN_POINT ( 'NONE',  ( -12.69999999999999900, 3.997792089092478900E-015, 0.3390860911285640800 ) ) ;
#186 = CARTESIAN_POINT ( 'NONE',  ( 4.996003610813200500E-016, 2.442490654175340100E-015, 4.000000000000000000 ) ) ;
#187 = CIRCLE ( 'NONE', #181, 238.0000000000000000 ) ;
#188 = ORIENTED_EDGE ( 'NONE', *, *, #120, .T. ) ;
#189 = PERSON_AND_ORGANIZATION_ROLE ( 'creator' ) ;
#190 = DIRECTION ( 'NONE',  ( -0.0000000000000000000, -0.0000000000000000000, -1.000000000000000000 ) ) ;
#191 = APPROVAL ( #61, 'UNSPECIFIED' ) ;
#192 = DIRECTION ( 'NONE',  ( 2.441897141834630300E-016, -1.000000000000000000, -4.664802624475447800E-016 ) ) ;
#193 = PERSON_AND_ORGANIZATION ( #178, #50 ) ;
#194 = APPROVAL_DATE_TIME ( #146, #191 ) ;
#195 = CC_DESIGN_PERSON_AND_ORGANIZATION_ASSIGNMENT ( #36, #73, ( #167 ) ) ;
#196 = EDGE_LOOP ( 'NONE', ( #231, #188, #143 ) ) ;
#197 = APPROVAL_PERSON_ORGANIZATION ( #193, #117, #205 ) ;
#198 = LOCAL_TIME ( 16, 59, 52.00000000000000000, #54 ) ;
#199 = AXIS2_PLACEMENT_3D ( 'NONE', #9, #135, #5 ) ;
#200 = ORIENTED_EDGE ( 'NONE', *, *, #68, .F. ) ;
#201 = DIRECTION ( 'NONE',  ( 1.000000000000000000, 0.0000000000000000000, 0.0000000000000000000 ) ) ;
#202 = ADVANCED_FACE ( 'NONE', ( #35 ), #140, .T. ) ;
#203 = MECHANICAL_CONTEXT ( 'NONE', #45, 'mechanical' ) ;
#204 = CARTESIAN_POINT ( 'NONE',  ( 8.525150424188998600, -4.288255581136351900, -0.001397722743939850800 ) ) ;
#205 = APPROVAL_ROLE ( '' ) ;
#206 = DIRECTION ( 'NONE',  ( 0.0000000000000000000, 0.0000000000000000000, 1.000000000000000000 ) ) ;
#207 = APPROVAL_PERSON_ORGANIZATION ( #233, #191, #96 ) ;
#208 = CC_DESIGN_DATE_AND_TIME_ASSIGNMENT ( #19, #134, ( #32 ) ) ;
#209 = APPLICATION_CONTEXT ( 'configuration controlled 3d designs of mechanical parts and assemblies' ) ;
#210 = APPLICATION_PROTOCOL_DEFINITION ( 'international standard', 'config_control_design', 1994, #209 ) ;
#211 = CARTESIAN_POINT ( 'NONE',  ( -8.525150424189114100, -4.288255581136356300, -0.001397722743926678200 ) ) ;
#212 = ORIENTED_EDGE ( 'NONE', *, *, #141, .F. ) ;
#213 = AXIS2_PLACEMENT_3D ( 'NONE', #30, #169, #227 ) ;
#214 = APPROVAL_DATE_TIME ( #121, #47 ) ;
#215 = ORIENTED_EDGE ( 'NONE', *, *, #82, .T. ) ;
#216 = AXIS2_PLACEMENT_3D ( 'NONE', #186, #190, #27 ) ;
#217 = LOCAL_TIME ( 16, 59, 52.00000000000000000, #31 ) ;
#218 = ADVANCED_FACE ( 'NONE', ( #48 ), #229, .T. ) ;
#219 = CARTESIAN_POINT ( 'NONE',  ( 4.524216996194808100E-014, 12.69999999999977700, 0.3390860911285646900 ) ) ;
#220 = CARTESIAN_POINT ( 'NONE',  ( 12.69999999999999900, 2.442490654175340100E-015, 0.3390860911285640800 ) ) ;
#221 = COORDINATED_UNIVERSAL_TIME_OFFSET ( 2, 0, .AHEAD. ) ;
#222 = LINE ( 'NONE', #185, #155 ) ;
#223 = CARTESIAN_POINT ( 'NONE',  ( -12.69999999999999900, 3.997792089092478900E-015, 4.000000000000000000 ) ) ;
#224 = CARTESIAN_POINT ( 'NONE',  ( 12.75748501419695400, -12.85225256879557800, 0.6899366229480334800 ) ) ;
#225 = CARTESIAN_POINT ( 'NONE',  ( -8.525150424189115800, 4.288255581136419400, -0.001397722743925973500 ) ) ;
#226 = CARTESIAN_POINT ( 'NONE',  ( 8.508568815511306800, 12.85225256879565100, 0.4615203309461823300 ) ) ;
#227 = DIRECTION ( 'NONE',  ( 1.000000000000000000, 0.0000000000000000000, 0.0000000000000000000 ) ) ;
#228 = LOCAL_TIME ( 16, 59, 52.00000000000000000, #173 ) ;
#229 = CYLINDRICAL_SURFACE ( 'NONE', #88, 12.69999999999999900 ) ;
#230 = CC_DESIGN_APPROVAL ( #117, ( #32 ) ) ;
#231 = ORIENTED_EDGE ( 'NONE', *, *, #139, .F. ) ;
#232 =( GEOMETRIC_REPRESENTATION_CONTEXT ( 3 ) GLOBAL_UNCERTAINTY_ASSIGNED_CONTEXT ( ( #81 ) ) GLOBAL_UNIT_ASSIGNED_CONTEXT ( ( #59, #153, #8 ) ) REPRESENTATION_CONTEXT ( 'NONE', 'WORKASPACE' ) );
#233 = PERSON_AND_ORGANIZATION ( #178, #50 ) ;
#234 = EDGE_LOOP ( 'NONE', ( #152, #158, #212, #42, #156 ) ) ;
#235 = VERTEX_POINT ( 'NONE', #148 ) ;
ENDSEC;
END-ISO-10303-21;
