ISO-10303-21;
HEADER;
FILE_DESCRIPTION (( 'STEP AP203' ),
    '1' );
FILE_NAME ('110-1227E UVFS pl-cx 25.4 F400.STEP',
    '2018-12-13T15:00:05',
    ( '' ),
    ( '' ),
    'SwSTEP 2.0',
    'SolidWorks 2017',
    '' );
FILE_SCHEMA (( 'CONFIG_CONTROL_DESIGN' ));
ENDSEC;

DATA;
#1 = CARTESIAN_POINT ( 'NONE',  ( -4.263256414560599900E-014, 12.85216949115538100, 0.4342616697141921100 ) ) ;
#2 = DATE_AND_TIME ( #190, #186 ) ;
#3 = ORIENTED_EDGE ( 'NONE', *, *, #123, .F. ) ;
#4 = PERSON_AND_ORGANIZATION ( #13, #191 ) ;
#5 = PERSON_AND_ORGANIZATION_ROLE ( 'design_owner' ) ;
#6 = PRODUCT_RELATED_PRODUCT_CATEGORY ( 'detail', '', ( #85 ) ) ;
#7 = ADVANCED_FACE ( 'NONE', ( #81 ), #179, .T. ) ;
#8 = ORIENTED_EDGE ( 'NONE', *, *, #99, .F. ) ;
#9 = ADVANCED_FACE ( 'NONE', ( #47 ), #226, .T. ) ;
#10 = LINE ( 'NONE', #37, #113 ) ;
#11 = CARTESIAN_POINT ( 'NONE',  ( -12.78581373472586700, -4.290580427796286700, 0.2844819369995549300 ) ) ;
#12 = ORIENTED_EDGE ( 'NONE', *, *, #188, .T. ) ;
#13 = PERSON ( 'UNSPECIFIED', 'UNSPECIFIED', 'UNSPECIFIED', ('UNSPECIFIED'), ('UNSPECIFIED'), ('UNSPECIFIED') ) ;
#14 = CARTESIAN_POINT ( 'NONE',  ( -8.529484183693995200, -4.290580427796286700, -0.001768430080257893100 ) ) ;
#15 = AXIS2_PLACEMENT_3D ( 'NONE', #154, #121, #232 ) ;
#16 = CARTESIAN_POINT ( 'NONE',  ( 12.78581373472587600, 4.290580427796241400, 0.2844819369995113500 ) ) ;
#17 = CARTESIAN_POINT ( 'NONE',  ( 8.529484183693957900, -4.290580427796286700, -0.001768430080275891100 ) ) ;
#18 = CARTESIAN_POINT ( 'NONE',  ( -4.263256414560599900E-014, -5.684341886080800200E-014, 190.4000000000000100 ) ) ;
#19 = PERSON_AND_ORGANIZATION ( #13, #191 ) ;
#20 = DIRECTION ( 'NONE',  ( -0.0000000000000000000, -0.0000000000000000000, -1.000000000000000000 ) ) ;
#21 = CIRCLE ( 'NONE', #157, 12.69999999999999900 ) ;
#22 = ORIENTED_EDGE ( 'NONE', *, *, #99, .T. ) ;
#23 = CARTESIAN_POINT ( 'NONE',  ( 8.503555479518874800, 12.85216949115538300, 0.5770322361399368200 ) ) ;
#24 =( NAMED_UNIT ( * ) SI_UNIT ( $, .STERADIAN. ) SOLID_ANGLE_UNIT ( ) );
#25 = CYLINDRICAL_SURFACE ( 'NONE', #48, 12.69999999999999900 ) ;
#26 = DESIGN_CONTEXT ( 'detailed design', #39, 'design' ) ;
#27 = ORIENTED_EDGE ( 'NONE', *, *, #75, .T. ) ;
#28 = ORIENTED_EDGE ( 'NONE', *, *, #200, .F. ) ;
#29 = ORIENTED_EDGE ( 'NONE', *, *, #41, .T. ) ;
#30 = LOCAL_TIME ( 17, 0, 5.000000000000000000, #77 ) ;
#31 = CARTESIAN_POINT ( 'NONE',  ( -12.69999999999999900, 3.997792089092478900E-015, 0.4240278350969949900 ) ) ;
#32 = CARTESIAN_POINT ( 'NONE',  ( -8.529484183693995200, 4.290580427796241400, -0.001768430080288901100 ) ) ;
#33 = APPROVAL_PERSON_ORGANIZATION ( #80, #53, #222 ) ;
#34 = CARTESIAN_POINT ( 'NONE',  ( -8.503555479518910300, 12.85216949115538300, 0.5770322361399548000 ) ) ;
#35 = CARTESIAN_POINT ( 'NONE',  ( -8.847089727481714900E-014, 4.290580427796243200, -0.1449743268558665600 ) ) ;
#36 = CARTESIAN_POINT ( 'NONE',  ( -12.69999999999999900, 3.997792089092478900E-015, 4.000000000000000000 ) ) ;
#37 = CARTESIAN_POINT ( 'NONE',  ( 12.69999999999999900, 2.442490654175340100E-015, 0.4240278350969949900 ) ) ;
#38 = DATE_AND_TIME ( #128, #92 ) ;
#39 = APPLICATION_CONTEXT ( 'configuration controlled 3d designs of mechanical parts and assemblies' ) ;
#40 = APPROVAL_STATUS ( 'not_yet_approved' ) ;
#41 = EDGE_CURVE ( 'NONE', #127, #66, #172, .T. ) ;
#42 = MECHANICAL_CONTEXT ( 'NONE', #106, 'mechanical' ) ;
#43 = VERTEX_POINT ( 'NONE', #31 ) ;
#44 = APPLICATION_PROTOCOL_DEFINITION ( 'international standard', 'config_control_design', 1994, #106 ) ;
#45 = ORIENTED_EDGE ( 'NONE', *, *, #123, .T. ) ;
#46 = CLOSED_SHELL ( 'NONE', ( #79, #63, #9, #7, #208 ) ) ;
#47 = FACE_OUTER_BOUND ( 'NONE', #133, .T. ) ;
#48 = AXIS2_PLACEMENT_3D ( 'NONE', #49, #210, #192 ) ;
#49 = CARTESIAN_POINT ( 'NONE',  ( 4.996003610813200500E-016, 2.442490654175340100E-015, 0.4240278350969949900 ) ) ;
#50 = AXIS2_PLACEMENT_3D ( 'NONE', #105, #102, #161 ) ;
#51 = CARTESIAN_POINT ( 'NONE',  ( -12.69999999999999900, 3.997792089092478900E-015, 0.4240278350969949900 ) ) ;
#52 = MANIFOLD_SOLID_BREP ( 'Imported1', #46 ) ;
#53 = APPROVAL ( #108, 'UNSPECIFIED' ) ;
#54 = DIRECTION ( 'NONE',  ( -0.0000000000000000000, -0.0000000000000000000, -1.000000000000000000 ) ) ;
#55 = DIRECTION ( 'NONE',  ( 0.0000000000000000000, 0.0000000000000000000, 1.000000000000000000 ) ) ;
#56 = APPROVAL_ROLE ( '' ) ;
#57 = CARTESIAN_POINT ( 'NONE',  ( 0.0000000000000000000, 0.0000000000000000000, 0.0000000000000000000 ) ) ;
#58 = DIRECTION ( 'NONE',  ( 1.000000000000000000, 0.0000000000000000000, -0.0000000000000000000 ) ) ;
#59 = CC_DESIGN_DATE_AND_TIME_ASSIGNMENT ( #93, #199, ( #62 ) ) ;
#60 = ORIENTED_EDGE ( 'NONE', *, *, #200, .T. ) ;
#61 = EDGE_CURVE ( 'NONE', #66, #43, #168, .T. ) ;
#62 = PRODUCT_DEFINITION ( 'UNKNOWN', '', #136, #26 ) ;
#63 = ADVANCED_FACE ( 'NONE', ( #187 ), #25, .T. ) ;
#64 = ORIENTED_EDGE ( 'NONE', *, *, #75, .F. ) ;
#65 = CARTESIAN_POINT ( 'NONE',  ( -4.265944270573778700, -4.290580427796285800, -0.1449743268558344700 ) ) ;
#66 = VERTEX_POINT ( 'NONE', #180 ) ;
#67 = AXIS2_PLACEMENT_3D ( 'NONE', #57, #72, #183 ) ;
#68 = DIRECTION ( 'NONE',  ( 1.000000000000000000, 0.0000000000000000000, 0.0000000000000000000 ) ) ;
#69 = CARTESIAN_POINT ( 'NONE',  ( 4.252976263993581100, 12.85216949115538300, 0.4342616697141920600 ) ) ;
#70 = APPROVAL_DATE_TIME ( #225, #182 ) ;
#71 = CARTESIAN_POINT ( 'NONE',  ( 4.252976263993580200, -12.85216949115542700, 0.4342616697142198100 ) ) ;
#72 = DIRECTION ( 'NONE',  ( 0.0000000000000000000, 0.0000000000000000000, 1.000000000000000000 ) ) ;
#73 = AXIS2_PLACEMENT_3D ( 'NONE', #18, #163, #235 ) ;
#74 = DATE_TIME_ROLE ( 'classification_date' ) ;
#75 = EDGE_CURVE ( 'NONE', #175, #124, #158, .T. ) ;
#76 = CC_DESIGN_DATE_AND_TIME_ASSIGNMENT ( #38, #74, ( #159 ) ) ;
#77 = COORDINATED_UNIVERSAL_TIME_OFFSET ( 2, 0, .AHEAD. ) ;
#78 = APPROVAL ( #40, 'UNSPECIFIED' ) ;
#79 = ADVANCED_FACE ( 'NONE', ( #181 ), #87, .T. ) ;
#80 = PERSON_AND_ORGANIZATION ( #13, #191 ) ;
#81 = FACE_OUTER_BOUND ( 'NONE', #207, .T. ) ;
#82 = AXIS2_PLACEMENT_3D ( 'NONE', #84, #20, #215 ) ;
#83 = COORDINATED_UNIVERSAL_TIME_OFFSET ( 2, 0, .AHEAD. ) ;
#84 = CARTESIAN_POINT ( 'NONE',  ( 4.996003610813200500E-016, 2.442490654175340100E-015, 4.000000000000000000 ) ) ;
#85 = PRODUCT ( '110-1227E UVFS pl-cx 25.4 F400', '110-1227E UVFS pl-cx 25.4 F400', '', ( #42 ) ) ;
#86 = DIRECTION ( 'NONE',  ( 1.000000000000000000, 0.0000000000000000000, 0.0000000000000000000 ) ) ;
#87 =( BOUNDED_SURFACE ( )  B_SPLINE_SURFACE ( 3, 3, ( 
 ( #122, #71, #139, #88 ),
 ( #119, #165, #17, #194 ),
 ( #101, #218, #234, #16 ),
 ( #1, #69, #23, #142 ) ),
 .UNSPECIFIED., .F., .F., .F. ) 
 B_SPLINE_SURFACE_WITH_KNOTS ( ( 4, 4 ),
 ( 4, 4 ),
 ( 0.0000000000000000000, 1.000000000000000000 ),
 ( 0.0000000000000000000, 1.000000000000000000 ),
 .UNSPECIFIED. ) 
 GEOMETRIC_REPRESENTATION_ITEM ( )  RATIONAL_B_SPLINE_SURFACE ( (
 ( 1.000000000000000000, 0.9996242555300041100, 0.9996242555300041100, 1.000000000000000000),
 ( 0.9984794759463788700, 0.9981043028048876000, 0.9981043028048876000, 0.9984794759463788700),
 ( 0.9984794759463788700, 0.9981043028048876000, 0.9981043028048876000, 0.9984794759463788700),
 ( 1.000000000000000000, 0.9996242555300041100, 0.9996242555300041100, 1.000000000000000000) ) ) 
 REPRESENTATION_ITEM ( '' )  SURFACE ( )  );
#88 = CARTESIAN_POINT ( 'NONE',  ( 12.74694625167229800, -12.85216949115542600, 0.8624124332390222800 ) ) ;
#89 = ORIENTED_EDGE ( 'NONE', *, *, #188, .F. ) ;
#90 = PERSON_AND_ORGANIZATION_ROLE ( 'creator' ) ;
#91 = CALENDAR_DATE ( 2018, 13, 12 ) ;
#92 = LOCAL_TIME ( 17, 0, 5.000000000000000000, #153 ) ;
#93 = DATE_AND_TIME ( #150, #30 ) ;
#94 = AXIS2_PLACEMENT_3D ( 'NONE', #195, #54, #86 ) ;
#95 = CARTESIAN_POINT ( 'NONE',  ( -8.503555479518910300, -12.85216949115542700, 0.5770322361399826700 ) ) ;
#96 = ORIENTED_EDGE ( 'NONE', *, *, #120, .F. ) ;
#97 = EDGE_LOOP ( 'NONE', ( #96, #64 ) ) ;
#98 = CARTESIAN_POINT ( 'NONE',  ( -12.78581373472586700, 4.290580427796241400, 0.2844819369995239500 ) ) ;
#99 = EDGE_CURVE ( 'NONE', #151, #127, #220, .T. ) ;
#100 = CARTESIAN_POINT ( 'NONE',  ( 12.69999999999999900, 2.442490654175340100E-015, 4.000000000000000000 ) ) ;
#101 = CARTESIAN_POINT ( 'NONE',  ( -4.263256414560599200E-014, 4.290580427796241400, -0.1449743268558892400 ) ) ;
#102 = DIRECTION ( 'NONE',  ( -0.0000000000000000000, -0.0000000000000000000, -1.000000000000000000 ) ) ;
#103 = PRODUCT_DEFINITION_SHAPE ( 'NONE', 'NONE',  #62 ) ;
#104 = SHAPE_DEFINITION_REPRESENTATION ( #103, #155 ) ;
#105 = CARTESIAN_POINT ( 'NONE',  ( 4.996003610813200500E-016, 2.442490654175340100E-015, 0.4240278350969949900 ) ) ;
#106 = APPLICATION_CONTEXT ( 'configuration controlled 3d designs of mechanical parts and assemblies' ) ;
#107 =( GEOMETRIC_REPRESENTATION_CONTEXT ( 3 ) GLOBAL_UNCERTAINTY_ASSIGNED_CONTEXT ( ( #184 ) ) GLOBAL_UNIT_ASSIGNED_CONTEXT ( ( #217, #146, #24 ) ) REPRESENTATION_CONTEXT ( 'NONE', 'WORKASPACE' ) );
#108 = APPROVAL_STATUS ( 'not_yet_approved' ) ;
#109 = PERSON_AND_ORGANIZATION ( #13, #191 ) ;
#110 = LINE ( 'NONE', #51, #129 ) ;
#111 = EDGE_CURVE ( 'NONE', #66, #151, #171, .T. ) ;
#112 = APPROVAL_PERSON_ORGANIZATION ( #198, #182, #56 ) ;
#113 = VECTOR ( 'NONE', #55, 1000.000000000000000 ) ;
#114 = CARTESIAN_POINT ( 'NONE',  ( -12.74694625167229100, 12.85216949115538100, 0.8624124332390070700 ) ) ;
#115 = CARTESIAN_POINT ( 'NONE',  ( -8.847089727481716200E-014, -12.85216949115542600, 0.4342616697142425200 ) ) ;
#116 = ORIENTED_EDGE ( 'NONE', *, *, #120, .T. ) ;
#117 = CARTESIAN_POINT ( 'NONE',  ( 4.996003610813200500E-016, 2.442490654175340100E-015, 0.4240278350969949900 ) ) ;
#118 = CC_DESIGN_PERSON_AND_ORGANIZATION_ASSIGNMENT ( #19, #90, ( #136 ) ) ;
#119 = CARTESIAN_POINT ( 'NONE',  ( -4.263256414560599200E-014, -4.290580427796286700, -0.1449743268558582900 ) ) ;
#120 = EDGE_CURVE ( 'NONE', #124, #175, #230, .T. ) ;
#121 = DIRECTION ( 'NONE',  ( -0.0000000000000000000, -0.0000000000000000000, -1.000000000000000000 ) ) ;
#122 = CARTESIAN_POINT ( 'NONE',  ( -4.263256414560599900E-014, -12.85216949115542600, 0.4342616697142198700 ) ) ;
#123 = EDGE_CURVE ( 'NONE', #43, #151, #21, .T. ) ;
#124 = VERTEX_POINT ( 'NONE', #100 ) ;
#125 = SECURITY_CLASSIFICATION_LEVEL ( 'unclassified' ) ;
#126 = COORDINATED_UNIVERSAL_TIME_OFFSET ( 2, 0, .AHEAD. ) ;
#127 = VERTEX_POINT ( 'NONE', #197 ) ;
#128 = CALENDAR_DATE ( 2018, 13, 12 ) ;
#129 = VECTOR ( 'NONE', #140, 1000.000000000000000 ) ;
#130 = AXIS2_PLACEMENT_3D ( 'NONE', #166, #178, #58 ) ;
#131 = AXIS2_PLACEMENT_3D ( 'NONE', #228, #211, #213 ) ;
#132 = DIRECTION ( 'NONE',  ( 1.000000000000000000, 0.0000000000000000000, 0.0000000000000000000 ) ) ;
#133 = EDGE_LOOP ( 'NONE', ( #214, #202, #45 ) ) ;
#134 = CARTESIAN_POINT ( 'NONE',  ( -4.265944270573777800, 4.290580427796242300, -0.1449743268558655300 ) ) ;
#135 = DIRECTION ( 'NONE',  ( -0.0000000000000000000, -0.0000000000000000000, -1.000000000000000000 ) ) ;
#136 = PRODUCT_DEFINITION_FORMATION_WITH_SPECIFIED_SOURCE ( 'ANY', '', #85, .NOT_KNOWN. ) ;
#137 = DIRECTION ( 'NONE',  ( -0.0000000000000000000, -0.0000000000000000000, -1.000000000000000000 ) ) ;
#138 = APPROVAL_DATE_TIME ( #2, #53 ) ;
#139 = CARTESIAN_POINT ( 'NONE',  ( 8.503555479518871300, -12.85216949115542700, 0.5770322361399646800 ) ) ;
#140 = DIRECTION ( 'NONE',  ( 0.0000000000000000000, 0.0000000000000000000, 1.000000000000000000 ) ) ;
#141 = CARTESIAN_POINT ( 'NONE',  ( 4.996003610813200500E-016, 2.442490654175340100E-015, 0.4240278350969949900 ) ) ;
#142 = CARTESIAN_POINT ( 'NONE',  ( 12.74694625167230200, 12.85216949115538100, 0.8624124332389946400 ) ) ;
#143 = PERSON_AND_ORGANIZATION ( #13, #191 ) ;
#144 = ORIENTED_EDGE ( 'NONE', *, *, #41, .F. ) ;
#145 = CC_DESIGN_PERSON_AND_ORGANIZATION_ASSIGNMENT ( #143, #5, ( #85 ) ) ;
#146 =( NAMED_UNIT ( * ) PLANE_ANGLE_UNIT ( ) SI_UNIT ( $, .RADIAN. ) );
#147 = CC_DESIGN_PERSON_AND_ORGANIZATION_ASSIGNMENT ( #174, #204, ( #62 ) ) ;
#148 = PERSON_AND_ORGANIZATION_ROLE ( 'design_supplier' ) ;
#149 = CC_DESIGN_APPROVAL ( #78, ( #159 ) ) ;
#150 = CALENDAR_DATE ( 2018, 13, 12 ) ;
#151 = VERTEX_POINT ( 'NONE', #160 ) ;
#152 = AXIS2_PLACEMENT_3D ( 'NONE', #117, #135, #132 ) ;
#153 = COORDINATED_UNIVERSAL_TIME_OFFSET ( 2, 0, .AHEAD. ) ;
#154 = CARTESIAN_POINT ( 'NONE',  ( 4.996003610813200500E-016, 2.442490654175340100E-015, 0.4240278350969949900 ) ) ;
#155 = ADVANCED_BREP_SHAPE_REPRESENTATION ( '110-1227E UVFS pl-cx 25.4 F400', ( #52, #67 ), #107 ) ;
#156 = EDGE_LOOP ( 'NONE', ( #3, #60, #27, #89, #8 ) ) ;
#157 = AXIS2_PLACEMENT_3D ( 'NONE', #141, #137, #68 ) ;
#158 = CIRCLE ( 'NONE', #94, 12.69999999999999900 ) ;
#159 = SECURITY_CLASSIFICATION ( '', '', #125 ) ;
#160 = CARTESIAN_POINT ( 'NONE',  ( -4.263256414560599900E-014, 12.69999999999986300, 0.4240278350969900500 ) ) ;
#161 = DIRECTION ( 'NONE',  ( 1.000000000000000000, 0.0000000000000000000, 0.0000000000000000000 ) ) ;
#162 = CC_DESIGN_SECURITY_CLASSIFICATION ( #159, ( #136 ) ) ;
#163 = DIRECTION ( 'NONE',  ( 1.000000000000000000, 0.0000000000000000000, 0.0000000000000000000 ) ) ;
#164 = DATE_AND_TIME ( #91, #205 ) ;
#165 = CARTESIAN_POINT ( 'NONE',  ( 4.265944270573693400, -4.290580427796286700, -0.1449743268558582900 ) ) ;
#166 = CARTESIAN_POINT ( 'NONE',  ( 0.0000000000000000000, 26.11199999999999800, 4.000000000000000000 ) ) ;
#167 = APPLICATION_PROTOCOL_DEFINITION ( 'international standard', 'config_control_design', 1994, #39 ) ;
#168 = CIRCLE ( 'NONE', #15, 12.69999999999999900 ) ;
#169 = ORIENTED_EDGE ( 'NONE', *, *, #111, .T. ) ;
#170 = APPROVAL_ROLE ( '' ) ;
#171 = CIRCLE ( 'NONE', #73, 190.4000000000000100 ) ;
#172 = CIRCLE ( 'NONE', #152, 12.69999999999999900 ) ;
#173 = CARTESIAN_POINT ( 'NONE',  ( -8.847089727481716200E-014, 12.85216949115538100, 0.4342616697142147600 ) ) ;
#174 = PERSON_AND_ORGANIZATION ( #13, #191 ) ;
#175 = VERTEX_POINT ( 'NONE', #36 ) ;
#176 = CC_DESIGN_PERSON_AND_ORGANIZATION_ASSIGNMENT ( #109, #148, ( #136 ) ) ;
#177 = PERSON_AND_ORGANIZATION ( #13, #191 ) ;
#178 = DIRECTION ( 'NONE',  ( 0.0000000000000000000, 0.0000000000000000000, 1.000000000000000000 ) ) ;
#179 = CYLINDRICAL_SURFACE ( 'NONE', #131, 12.69999999999999900 ) ;
#180 = CARTESIAN_POINT ( 'NONE',  ( -4.263256414560599900E-014, -12.69999999999991900, 0.4240278350969900500 ) ) ;
#181 = FACE_OUTER_BOUND ( 'NONE', #227, .T. ) ;
#182 = APPROVAL ( #185, 'UNSPECIFIED' ) ;
#183 = DIRECTION ( 'NONE',  ( 1.000000000000000000, 0.0000000000000000000, 0.0000000000000000000 ) ) ;
#184 = UNCERTAINTY_MEASURE_WITH_UNIT (LENGTH_MEASURE( 1.000000000000000100E-005 ), #217, 'distance_accuracy_value', 'NONE');
#185 = APPROVAL_STATUS ( 'not_yet_approved' ) ;
#186 = LOCAL_TIME ( 17, 0, 5.000000000000000000, #229 ) ;
#187 = FACE_OUTER_BOUND ( 'NONE', #156, .T. ) ;
#188 = EDGE_CURVE ( 'NONE', #127, #124, #10, .T. ) ;
#189 = CARTESIAN_POINT ( 'NONE',  ( -9.020562075079396900E-014, -4.290580427796285800, -0.1449743268558355600 ) ) ;
#190 = CALENDAR_DATE ( 2018, 13, 12 ) ;
#191 = ORGANIZATION ( 'UNSPECIFIED', 'UNSPECIFIED', '' ) ;
#192 = DIRECTION ( 'NONE',  ( 1.000000000000000000, 0.0000000000000000000, 0.0000000000000000000 ) ) ;
#193 = CARTESIAN_POINT ( 'NONE',  ( -4.252976263993663700, 12.85216949115538300, 0.4342616697142157600 ) ) ;
#194 = CARTESIAN_POINT ( 'NONE',  ( 12.78581373472587400, -4.290580427796286700, 0.2844819369995421600 ) ) ;
#195 = CARTESIAN_POINT ( 'NONE',  ( 4.996003610813200500E-016, 2.442490654175340100E-015, 4.000000000000000000 ) ) ;
#196 = PLANE ( 'NONE',  #130 ) ;
#197 = CARTESIAN_POINT ( 'NONE',  ( 12.69999999999999900, 2.442490654175340100E-015, 0.4240278350969949900 ) ) ;
#198 = PERSON_AND_ORGANIZATION ( #13, #191 ) ;
#199 = DATE_TIME_ROLE ( 'creation_date' ) ;
#200 = EDGE_CURVE ( 'NONE', #43, #175, #110, .T. ) ;
#201 = PERSON_AND_ORGANIZATION_ROLE ( 'classification_officer' ) ;
#202 = ORIENTED_EDGE ( 'NONE', *, *, #61, .T. ) ;
#203 = CC_DESIGN_APPROVAL ( #182, ( #62 ) ) ;
#204 = PERSON_AND_ORGANIZATION_ROLE ( 'creator' ) ;
#205 = LOCAL_TIME ( 17, 0, 5.000000000000000000, #126 ) ;
#206 = LOCAL_TIME ( 17, 0, 5.000000000000000000, #83 ) ;
#207 = EDGE_LOOP ( 'NONE', ( #28, #209, #144, #12, #116 ) ) ;
#208 = ADVANCED_FACE ( 'NONE', ( #219 ), #196, .T. ) ;
#209 = ORIENTED_EDGE ( 'NONE', *, *, #61, .F. ) ;
#210 = DIRECTION ( 'NONE',  ( 0.0000000000000000000, 0.0000000000000000000, 1.000000000000000000 ) ) ;
#211 = DIRECTION ( 'NONE',  ( 0.0000000000000000000, 0.0000000000000000000, 1.000000000000000000 ) ) ;
#212 = CARTESIAN_POINT ( 'NONE',  ( -4.252976263993663700, -12.85216949115542700, 0.4342616697142435700 ) ) ;
#213 = DIRECTION ( 'NONE',  ( 1.000000000000000000, 0.0000000000000000000, 0.0000000000000000000 ) ) ;
#214 = ORIENTED_EDGE ( 'NONE', *, *, #111, .F. ) ;
#215 = DIRECTION ( 'NONE',  ( 1.000000000000000000, 0.0000000000000000000, 0.0000000000000000000 ) ) ;
#216 = CC_DESIGN_PERSON_AND_ORGANIZATION_ASSIGNMENT ( #4, #201, ( #159 ) ) ;
#217 =( LENGTH_UNIT ( ) NAMED_UNIT ( * ) SI_UNIT ( .MILLI., .METRE. ) );
#218 = CARTESIAN_POINT ( 'NONE',  ( 4.265944270573694300, 4.290580427796241400, -0.1449743268558891800 ) ) ;
#219 = FACE_OUTER_BOUND ( 'NONE', #97, .T. ) ;
#220 = CIRCLE ( 'NONE', #50, 12.69999999999999900 ) ;
#221 = CC_DESIGN_APPROVAL ( #53, ( #136 ) ) ;
#222 = APPROVAL_ROLE ( '' ) ;
#223 = APPROVAL_PERSON_ORGANIZATION ( #177, #78, #170 ) ;
#224 = CALENDAR_DATE ( 2018, 13, 12 ) ;
#225 = DATE_AND_TIME ( #224, #206 ) ;
#226 =( BOUNDED_SURFACE ( )  B_SPLINE_SURFACE ( 3, 3, ( 
 ( #231, #95, #212, #115 ),
 ( #11, #14, #65, #189 ),
 ( #98, #32, #134, #35 ),
 ( #114, #34, #193, #173 ) ),
 .UNSPECIFIED., .F., .F., .F. ) 
 B_SPLINE_SURFACE_WITH_KNOTS ( ( 4, 4 ),
 ( 4, 4 ),
 ( 0.0000000000000000000, 1.000000000000000000 ),
 ( 0.0000000000000000000, 1.000000000000000000 ),
 .UNSPECIFIED. ) 
 GEOMETRIC_REPRESENTATION_ITEM ( )  RATIONAL_B_SPLINE_SURFACE ( (
 ( 1.000000000000000000, 0.9996242555300041100, 0.9996242555300041100, 1.000000000000000000),
 ( 0.9984794759463788700, 0.9981043028048876000, 0.9981043028048876000, 0.9984794759463788700),
 ( 0.9984794759463788700, 0.9981043028048876000, 0.9981043028048876000, 0.9984794759463788700),
 ( 1.000000000000000000, 0.9996242555300041100, 0.9996242555300041100, 1.000000000000000000) ) ) 
 REPRESENTATION_ITEM ( '' )  SURFACE ( )  );
#227 = EDGE_LOOP ( 'NONE', ( #29, #169, #22 ) ) ;
#228 = CARTESIAN_POINT ( 'NONE',  ( 4.996003610813200500E-016, 2.442490654175340100E-015, 0.4240278350969949900 ) ) ;
#229 = COORDINATED_UNIVERSAL_TIME_OFFSET ( 2, 0, .AHEAD. ) ;
#230 = CIRCLE ( 'NONE', #82, 12.69999999999999900 ) ;
#231 = CARTESIAN_POINT ( 'NONE',  ( -12.74694625167229000, -12.85216949115542600, 0.8624124332390348300 ) ) ;
#232 = DIRECTION ( 'NONE',  ( 1.000000000000000000, 8.881784197001252300E-016, 0.0000000000000000000 ) ) ;
#233 = APPROVAL_DATE_TIME ( #164, #78 ) ;
#234 = CARTESIAN_POINT ( 'NONE',  ( 8.529484183693957900, 4.290580427796241400, -0.001768430080306736600 ) ) ;
#235 = DIRECTION ( 'NONE',  ( 0.0000000000000000000, -1.000000000000000000, -5.831003280594309600E-016 ) ) ;
ENDSEC;
END-ISO-10303-21;
