ISO-10303-21;
HEADER;
FILE_DESCRIPTION (( 'STEP AP203' ),
    '1' );
FILE_NAME ('110-1225E UVFS pl-cx 25.4 F350.STEP',
    '2018-12-13T15:00:19',
    ( '' ),
    ( '' ),
    'SwSTEP 2.0',
    'SolidWorks 2017',
    '' );
FILE_SCHEMA (( 'CONFIG_CONTROL_DESIGN' ));
ENDSEC;

DATA;
#1 = CARTESIAN_POINT ( 'NONE',  ( 4.996003610813200500E-016, 2.442490654175340100E-015, 0.4847689102531440000 ) ) ;
#2 = EDGE_CURVE ( 'NONE', #128, #22, #63, .T. ) ;
#3 = DATE_AND_TIME ( #205, #58 ) ;
#4 = FACE_OUTER_BOUND ( 'NONE', #95, .T. ) ;
#5 = DIRECTION ( 'NONE',  ( 1.000000000000000000, 0.0000000000000000000, 0.0000000000000000000 ) ) ;
#6 = CARTESIAN_POINT ( 'NONE',  ( 12.78876684368782100, 4.292560797368177600, 0.3252704792002936700 ) ) ;
#7 = CARTESIAN_POINT ( 'NONE',  ( 4.263256414560599900E-014, 12.85209876302663200, 0.4964673542871000900 ) ) ;
#8 = LINE ( 'NONE', #118, #157 ) ;
#9 = APPROVAL_DATE_TIME ( #12, #176 ) ;
#10 = ORIENTED_EDGE ( 'NONE', *, *, #216, .F. ) ;
#11 = MANIFOLD_SOLID_BREP ( 'Imported1', #54 ) ;
#12 = DATE_AND_TIME ( #66, #208 ) ;
#13 = DIRECTION ( 'NONE',  ( -0.0000000000000000000, -0.0000000000000000000, -1.000000000000000000 ) ) ;
#14 = UNCERTAINTY_MEASURE_WITH_UNIT (LENGTH_MEASURE( 1.000000000000000100E-005 ), #141, 'distance_accuracy_value', 'NONE');
#15 = CIRCLE ( 'NONE', #113, 12.69999999999999900 ) ;
#16 = AXIS2_PLACEMENT_3D ( 'NONE', #120, #136, #159 ) ;
#17 = CARTESIAN_POINT ( 'NONE',  ( -12.78876684368781200, 4.292560797368177600, 0.3252704792003101600 ) ) ;
#18 = DATE_AND_TIME ( #124, #70 ) ;
#19 = PERSON_AND_ORGANIZATION_ROLE ( 'creator' ) ;
#20 =( NAMED_UNIT ( * ) SI_UNIT ( $, .STERADIAN. ) SOLID_ANGLE_UNIT ( ) );
#21 = AXIS2_PLACEMENT_3D ( 'NONE', #130, #51, #233 ) ;
#22 = VERTEX_POINT ( 'NONE', #133 ) ;
#23 = SECURITY_CLASSIFICATION_LEVEL ( 'unclassified' ) ;
#24 = CARTESIAN_POINT ( 'NONE',  ( 4.268159667411682200, 4.292560797368176800, -0.1658185438410135200 ) ) ;
#25 = DATE_TIME_ROLE ( 'classification_date' ) ;
#26 = LOCAL_TIME ( 17, 0, 19.00000000000000000, #76 ) ;
#27 = EDGE_CURVE ( 'NONE', #193, #197, #89, .T. ) ;
#28 = COORDINATED_UNIVERSAL_TIME_OFFSET ( 2, 0, .AHEAD. ) ;
#29 = ORIENTED_EDGE ( 'NONE', *, *, #43, .T. ) ;
#30 = AXIS2_PLACEMENT_3D ( 'NONE', #210, #81, #64 ) ;
#31 = DIRECTION ( 'NONE',  ( 0.0000000000000000000, 0.0000000000000000000, 1.000000000000000000 ) ) ;
#32 = COORDINATED_UNIVERSAL_TIME_OFFSET ( 2, 0, .AHEAD. ) ;
#33 = LINE ( 'NONE', #196, #227 ) ;
#34 = DIRECTION ( 'NONE',  ( 1.000000000000000000, 0.0000000000000000000, 0.0000000000000000000 ) ) ;
#35 = CARTESIAN_POINT ( 'NONE',  ( -12.78876684368781200, -4.292560797368134100, 0.3252704792003110500 ) ) ;
#36 = APPROVAL_ROLE ( '' ) ;
#37 = AXIS2_PLACEMENT_3D ( 'NONE', #155, #57, #34 ) ;
#38 = ORIENTED_EDGE ( 'NONE', *, *, #194, .F. ) ;
#39 = DIRECTION ( 'NONE',  ( 0.0000000000000000000, 0.0000000000000000000, 1.000000000000000000 ) ) ;
#40 = PERSON_AND_ORGANIZATION_ROLE ( 'classification_officer' ) ;
#41 = CARTESIAN_POINT ( 'NONE',  ( 4.263256414560599900E-014, 12.70000000000003700, 0.4847689102531456100 ) ) ;
#42 = EDGE_LOOP ( 'NONE', ( #106, #182, #72, #129, #84 ) ) ;
#43 = EDGE_CURVE ( 'NONE', #197, #203, #173, .T. ) ;
#44 = ORGANIZATION ( 'UNSPECIFIED', 'UNSPECIFIED', '' ) ;
#45 = ORIENTED_EDGE ( 'NONE', *, *, #98, .F. ) ;
#46 = CC_DESIGN_DATE_AND_TIME_ASSIGNMENT ( #3, #25, ( #226 ) ) ;
#47 = AXIS2_PLACEMENT_3D ( 'NONE', #222, #224, #207 ) ;
#48 = CARTESIAN_POINT ( 'NONE',  ( -8.499287724930049100, -12.85209876302659100, 0.6595936907967137100 ) ) ;
#49 =( GEOMETRIC_REPRESENTATION_CONTEXT ( 3 ) GLOBAL_UNCERTAINTY_ASSIGNED_CONTEXT ( ( #14 ) ) GLOBAL_UNIT_ASSIGNED_CONTEXT ( ( #141, #164, #20 ) ) REPRESENTATION_CONTEXT ( 'NONE', 'WORKASPACE' ) );
#50 = ORIENTED_EDGE ( 'NONE', *, *, #110, .F. ) ;
#51 = DIRECTION ( 'NONE',  ( -0.0000000000000000000, -0.0000000000000000000, -1.000000000000000000 ) ) ;
#52 = CARTESIAN_POINT ( 'NONE',  ( 0.0000000000000000000, -12.85209876302658900, 0.4964673542870964300 ) ) ;
#53 = APPROVAL_DATE_TIME ( #18, #78 ) ;
#54 = CLOSED_SHELL ( 'NONE', ( #188, #85, #90, #150, #171 ) ) ;
#55 = CARTESIAN_POINT ( 'NONE',  ( 12.69999999999999900, 2.442490654175340100E-015, 0.4847689102531440000 ) ) ;
#56 = DIRECTION ( 'NONE',  ( 1.000000000000000000, 0.0000000000000000000, 0.0000000000000000000 ) ) ;
#57 = DIRECTION ( 'NONE',  ( 0.0000000000000000000, 0.0000000000000000000, 1.000000000000000000 ) ) ;
#58 = LOCAL_TIME ( 17, 0, 19.00000000000000000, #28 ) ;
#59 = CARTESIAN_POINT ( 'NONE',  ( 12.78876684368782100, -4.292560797368134100, 0.3252704792002945000 ) ) ;
#60 = CARTESIAN_POINT ( 'NONE',  ( 4.263256414560599900E-014, -12.85209876302658900, 0.4964673542871000900 ) ) ;
#61 = APPROVAL_STATUS ( 'not_yet_approved' ) ;
#62 = DATE_AND_TIME ( #187, #225 ) ;
#63 = CIRCLE ( 'NONE', #223, 12.69999999999999900 ) ;
#64 = DIRECTION ( 'NONE',  ( 1.000000000000000000, 0.0000000000000000000, 0.0000000000000000000 ) ) ;
#65 = CC_DESIGN_DATE_AND_TIME_ASSIGNMENT ( #161, #228, ( #221 ) ) ;
#66 = CALENDAR_DATE ( 2018, 13, 12 ) ;
#67 =( BOUNDED_SURFACE ( )  B_SPLINE_SURFACE ( 3, 3, ( 
 ( #60, #126, #82, #162 ),
 ( #229, #122, #79, #59 ),
 ( #83, #24, #100, #6 ),
 ( #7, #211, #200, #99 ) ),
 .UNSPECIFIED., .F., .F., .F. ) 
 B_SPLINE_SURFACE_WITH_KNOTS ( ( 4, 4 ),
 ( 4, 4 ),
 ( 0.0000000000000000000, 1.000000000000000000 ),
 ( 0.0000000000000000000, 1.000000000000000000 ),
 .UNSPECIFIED. ) 
 GEOMETRIC_REPRESENTATION_ITEM ( )  RATIONAL_B_SPLINE_SURFACE ( (
 ( 1.000000000000000000, 0.9995090221632199100, 0.9995090221632199100, 1.000000000000000000),
 ( 0.9980133359172184100, 0.9975233334884721100, 0.9975233334884721100, 0.9980133359172184100),
 ( 0.9980133359172184100, 0.9975233334884721100, 0.9975233334884721100, 0.9980133359172184100),
 ( 1.000000000000000000, 0.9995090221632199100, 0.9995090221632199100, 1.000000000000000000) ) ) 
 REPRESENTATION_ITEM ( '' )  SURFACE ( )  );
#68 = CYLINDRICAL_SURFACE ( 'NONE', #37, 12.69999999999999900 ) ;
#69 = DIRECTION ( 'NONE',  ( 1.000000000000000000, 0.0000000000000000000, 0.0000000000000000000 ) ) ;
#70 = LOCAL_TIME ( 17, 0, 19.00000000000000000, #156 ) ;
#71 = APPROVAL ( #167, 'UNSPECIFIED' ) ;
#72 = ORIENTED_EDGE ( 'NONE', *, *, #88, .F. ) ;
#73 = CC_DESIGN_APPROVAL ( #71, ( #226 ) ) ;
#74 = CARTESIAN_POINT ( 'NONE',  ( -4.251209299624246500, 12.85209876302663500, 0.4964673542870976500 ) ) ;
#75 = DIRECTION ( 'NONE',  ( 1.000000000000000000, 0.0000000000000000000, 0.0000000000000000000 ) ) ;
#76 = COORDINATED_UNIVERSAL_TIME_OFFSET ( 2, 0, .AHEAD. ) ;
#77 = PLANE ( 'NONE',  #16 ) ;
#78 = APPROVAL ( #61, 'UNSPECIFIED' ) ;
#79 = CARTESIAN_POINT ( 'NONE',  ( 8.533175977122514400, -4.292560797368135000, -0.002041792071949089200 ) ) ;
#80 = PERSON_AND_ORGANIZATION ( #217, #44 ) ;
#81 = DIRECTION ( 'NONE',  ( -0.0000000000000000000, -0.0000000000000000000, -1.000000000000000000 ) ) ;
#82 = CARTESIAN_POINT ( 'NONE',  ( 8.499287724930066900, -12.85209876302659100, 0.6595936907967000500 ) ) ;
#83 = CARTESIAN_POINT ( 'NONE',  ( 4.263256414560599900E-014, 4.292560797368177600, -0.1658185438410135200 ) ) ;
#84 = ORIENTED_EDGE ( 'NONE', *, *, #2, .T. ) ;
#85 = ADVANCED_FACE ( 'NONE', ( #137 ), #213, .T. ) ;
#86 = APPROVAL_PERSON_ORGANIZATION ( #172, #71, #184 ) ;
#87 = ORIENTED_EDGE ( 'NONE', *, *, #110, .T. ) ;
#88 = EDGE_CURVE ( 'NONE', #147, #193, #15, .T. ) ;
#89 = CIRCLE ( 'NONE', #151, 12.69999999999999900 ) ;
#90 = ADVANCED_FACE ( 'NONE', ( #206 ), #93, .T. ) ;
#91 = CARTESIAN_POINT ( 'NONE',  ( 4.996003610813200500E-016, 2.442490654175340100E-015, 0.4847689102531440000 ) ) ;
#92 = CC_DESIGN_APPROVAL ( #78, ( #221 ) ) ;
#93 =( BOUNDED_SURFACE ( )  B_SPLINE_SURFACE ( 3, 3, ( 
 ( #109, #48, #135, #52 ),
 ( #35, #117, #96, #235 ),
 ( #17, #114, #97, #138 ),
 ( #94, #178, #74, #192 ) ),
 .UNSPECIFIED., .F., .F., .F. ) 
 B_SPLINE_SURFACE_WITH_KNOTS ( ( 4, 4 ),
 ( 4, 4 ),
 ( 0.0000000000000000000, 1.000000000000000000 ),
 ( 0.0000000000000000000, 1.000000000000000000 ),
 .UNSPECIFIED. ) 
 GEOMETRIC_REPRESENTATION_ITEM ( )  RATIONAL_B_SPLINE_SURFACE ( (
 ( 1.000000000000000000, 0.9995090221632199100, 0.9995090221632199100, 1.000000000000000000),
 ( 0.9980133359172184100, 0.9975233334884721100, 0.9975233334884721100, 0.9980133359172184100),
 ( 0.9980133359172184100, 0.9975233334884721100, 0.9975233334884721100, 0.9980133359172184100),
 ( 1.000000000000000000, 0.9995090221632199100, 0.9995090221632199100, 1.000000000000000000) ) ) 
 REPRESENTATION_ITEM ( '' )  SURFACE ( )  );
#94 = CARTESIAN_POINT ( 'NONE',  ( -12.73797813885021800, 12.85209876302663200, 0.9856060895684637400 ) ) ;
#95 = EDGE_LOOP ( 'NONE', ( #189, #87, #185 ) ) ;
#96 = CARTESIAN_POINT ( 'NONE',  ( -4.268159667411652000, -4.292560797368135000, -0.1658185438410152700 ) ) ;
#97 = CARTESIAN_POINT ( 'NONE',  ( -4.268159667411652000, 4.292560797368177600, -0.1658185438410161600 ) ) ;
#98 = EDGE_CURVE ( 'NONE', #22, #128, #165, .T. ) ;
#99 = CARTESIAN_POINT ( 'NONE',  ( 12.73797813885022900, 12.85209876302663200, 0.9856060895684473100 ) ) ;
#100 = CARTESIAN_POINT ( 'NONE',  ( 8.533175977122514400, 4.292560797368176800, -0.002041792071949902800 ) ) ;
#101 = APPLICATION_PROTOCOL_DEFINITION ( 'international standard', 'config_control_design', 1994, #125 ) ;
#102 = AXIS2_PLACEMENT_3D ( 'NONE', #134, #158, #75 ) ;
#103 = PERSON_AND_ORGANIZATION_ROLE ( 'creator' ) ;
#104 = FACE_OUTER_BOUND ( 'NONE', #219, .T. ) ;
#105 = PRODUCT_RELATED_PRODUCT_CATEGORY ( 'detail', '', ( #195 ) ) ;
#106 = ORIENTED_EDGE ( 'NONE', *, *, #163, .F. ) ;
#107 = APPROVAL_PERSON_ORGANIZATION ( #212, #78, #214 ) ;
#108 = ADVANCED_BREP_SHAPE_REPRESENTATION ( '110-1225E UVFS pl-cx 25.4 F350', ( #11, #139 ), #49 ) ;
#109 = CARTESIAN_POINT ( 'NONE',  ( -12.73797813885021800, -12.85209876302658900, 0.9856060895684637400 ) ) ;
#110 = EDGE_CURVE ( 'NONE', #193, #203, #132, .T. ) ;
#111 = PERSON_AND_ORGANIZATION ( #217, #44 ) ;
#112 = DIRECTION ( 'NONE',  ( 1.000000000000000000, 0.0000000000000000000, 0.0000000000000000000 ) ) ;
#113 = AXIS2_PLACEMENT_3D ( 'NONE', #1, #116, #56 ) ;
#114 = CARTESIAN_POINT ( 'NONE',  ( -8.533175977122496600, 4.292560797368176800, -0.002041792071936241900 ) ) ;
#115 = ORIENTED_EDGE ( 'NONE', *, *, #27, .T. ) ;
#116 = DIRECTION ( 'NONE',  ( -0.0000000000000000000, -0.0000000000000000000, -1.000000000000000000 ) ) ;
#117 = CARTESIAN_POINT ( 'NONE',  ( -8.533175977122496600, -4.292560797368135000, -0.002041792071935374500 ) ) ;
#118 = CARTESIAN_POINT ( 'NONE',  ( -12.69999999999999900, 3.997792089092478900E-015, 0.4847689102531440000 ) ) ;
#119 = COORDINATED_UNIVERSAL_TIME_OFFSET ( 2, 0, .AHEAD. ) ;
#120 = CARTESIAN_POINT ( 'NONE',  ( 0.0000000000000000000, 26.11199999999999800, 4.000000000000000000 ) ) ;
#121 = CC_DESIGN_PERSON_AND_ORGANIZATION_ASSIGNMENT ( #153, #103, ( #221 ) ) ;
#122 = CARTESIAN_POINT ( 'NONE',  ( 4.268159667411682200, -4.292560797368135000, -0.1658185438410127200 ) ) ;
#123 = APPROVAL_STATUS ( 'not_yet_approved' ) ;
#124 = CALENDAR_DATE ( 2018, 13, 12 ) ;
#125 = APPLICATION_CONTEXT ( 'configuration controlled 3d designs of mechanical parts and assemblies' ) ;
#126 = CARTESIAN_POINT ( 'NONE',  ( 4.251209299624277600, -12.85209876302659100, 0.4964673542871000400 ) ) ;
#127 = DESIGN_CONTEXT ( 'detailed design', #201, 'design' ) ;
#128 = VERTEX_POINT ( 'NONE', #149 ) ;
#129 = ORIENTED_EDGE ( 'NONE', *, *, #194, .T. ) ;
#130 = CARTESIAN_POINT ( 'NONE',  ( 4.996003610813200500E-016, 2.442490654175340100E-015, 0.4847689102531440000 ) ) ;
#131 = PRODUCT_DEFINITION_FORMATION_WITH_SPECIFIED_SOURCE ( 'ANY', '', #195, .NOT_KNOWN. ) ;
#132 = CIRCLE ( 'NONE', #47, 166.5999999999999900 ) ;
#133 = CARTESIAN_POINT ( 'NONE',  ( -12.69999999999999900, 3.997792089092478900E-015, 4.000000000000000000 ) ) ;
#134 = CARTESIAN_POINT ( 'NONE',  ( 4.996003610813200500E-016, 2.442490654175340100E-015, 4.000000000000000000 ) ) ;
#135 = CARTESIAN_POINT ( 'NONE',  ( -4.251209299624246500, -12.85209876302659100, 0.4964673542870976500 ) ) ;
#136 = DIRECTION ( 'NONE',  ( 0.0000000000000000000, 0.0000000000000000000, 1.000000000000000000 ) ) ;
#137 = FACE_OUTER_BOUND ( 'NONE', #154, .T. ) ;
#138 = CARTESIAN_POINT ( 'NONE',  ( 0.0000000000000000000, 4.292560797368178500, -0.1658185438410172100 ) ) ;
#139 = AXIS2_PLACEMENT_3D ( 'NONE', #183, #180, #5 ) ;
#140 = PRODUCT_DEFINITION_SHAPE ( 'NONE', 'NONE',  #221 ) ;
#141 =( LENGTH_UNIT ( ) NAMED_UNIT ( * ) SI_UNIT ( .MILLI., .METRE. ) );
#142 = SHAPE_DEFINITION_REPRESENTATION ( #140, #108 ) ;
#143 = ORIENTED_EDGE ( 'NONE', *, *, #98, .T. ) ;
#144 = PERSON_AND_ORGANIZATION_ROLE ( 'design_supplier' ) ;
#145 = PERSON_AND_ORGANIZATION_ROLE ( 'design_owner' ) ;
#146 = CC_DESIGN_PERSON_AND_ORGANIZATION_ASSIGNMENT ( #190, #19, ( #131 ) ) ;
#147 = VERTEX_POINT ( 'NONE', #55 ) ;
#148 = ORIENTED_EDGE ( 'NONE', *, *, #2, .F. ) ;
#149 = CARTESIAN_POINT ( 'NONE',  ( 12.69999999999999900, 2.442490654175340100E-015, 4.000000000000000000 ) ) ;
#150 = ADVANCED_FACE ( 'NONE', ( #202 ), #68, .T. ) ;
#151 = AXIS2_PLACEMENT_3D ( 'NONE', #91, #13, #112 ) ;
#152 = CARTESIAN_POINT ( 'NONE',  ( 4.996003610813200500E-016, 2.442490654175340100E-015, 4.000000000000000000 ) ) ;
#153 = PERSON_AND_ORGANIZATION ( #217, #44 ) ;
#154 = EDGE_LOOP ( 'NONE', ( #232, #230, #143, #38, #10 ) ) ;
#155 = CARTESIAN_POINT ( 'NONE',  ( 4.996003610813200500E-016, 2.442490654175340100E-015, 0.4847689102531440000 ) ) ;
#156 = COORDINATED_UNIVERSAL_TIME_OFFSET ( 2, 0, .AHEAD. ) ;
#157 = VECTOR ( 'NONE', #179, 1000.000000000000000 ) ;
#158 = DIRECTION ( 'NONE',  ( -0.0000000000000000000, -0.0000000000000000000, -1.000000000000000000 ) ) ;
#159 = DIRECTION ( 'NONE',  ( 1.000000000000000000, 0.0000000000000000000, -0.0000000000000000000 ) ) ;
#160 = APPLICATION_PROTOCOL_DEFINITION ( 'international standard', 'config_control_design', 1994, #201 ) ;
#161 = DATE_AND_TIME ( #231, #26 ) ;
#162 = CARTESIAN_POINT ( 'NONE',  ( 12.73797813885022700, -12.85209876302658900, 0.9856060895684473100 ) ) ;
#163 = EDGE_CURVE ( 'NONE', #197, #22, #8, .T. ) ;
#164 =( NAMED_UNIT ( * ) PLANE_ANGLE_UNIT ( ) SI_UNIT ( $, .RADIAN. ) );
#165 = CIRCLE ( 'NONE', #102, 12.69999999999999900 ) ;
#166 = CARTESIAN_POINT ( 'NONE',  ( 4.263256414560599900E-014, -12.70000000000002100, 0.4847689102531456100 ) ) ;
#167 = APPROVAL_STATUS ( 'not_yet_approved' ) ;
#168 = AXIS2_PLACEMENT_3D ( 'NONE', #204, #31, #191 ) ;
#169 = PERSON_AND_ORGANIZATION ( #217, #44 ) ;
#170 = CC_DESIGN_SECURITY_CLASSIFICATION ( #226, ( #131 ) ) ;
#171 = ADVANCED_FACE ( 'NONE', ( #104 ), #77, .T. ) ;
#172 = PERSON_AND_ORGANIZATION ( #217, #44 ) ;
#173 = CIRCLE ( 'NONE', #21, 12.69999999999999900 ) ;
#174 = DIRECTION ( 'NONE',  ( -0.0000000000000000000, -0.0000000000000000000, -1.000000000000000000 ) ) ;
#175 = APPROVAL_PERSON_ORGANIZATION ( #220, #176, #36 ) ;
#176 = APPROVAL ( #123, 'UNSPECIFIED' ) ;
#177 = EDGE_LOOP ( 'NONE', ( #50, #115, #29 ) ) ;
#178 = CARTESIAN_POINT ( 'NONE',  ( -8.499287724930049100, 12.85209876302663500, 0.6595936907967137100 ) ) ;
#179 = DIRECTION ( 'NONE',  ( 0.0000000000000000000, 0.0000000000000000000, 1.000000000000000000 ) ) ;
#180 = DIRECTION ( 'NONE',  ( 0.0000000000000000000, 0.0000000000000000000, 1.000000000000000000 ) ) ;
#181 = APPROVAL_DATE_TIME ( #62, #71 ) ;
#182 = ORIENTED_EDGE ( 'NONE', *, *, #27, .F. ) ;
#183 = CARTESIAN_POINT ( 'NONE',  ( 0.0000000000000000000, 0.0000000000000000000, 0.0000000000000000000 ) ) ;
#184 = APPROVAL_ROLE ( '' ) ;
#185 = ORIENTED_EDGE ( 'NONE', *, *, #216, .T. ) ;
#186 = CC_DESIGN_APPROVAL ( #176, ( #131 ) ) ;
#187 = CALENDAR_DATE ( 2018, 13, 12 ) ;
#188 = ADVANCED_FACE ( 'NONE', ( #4 ), #67, .T. ) ;
#189 = ORIENTED_EDGE ( 'NONE', *, *, #88, .T. ) ;
#190 = PERSON_AND_ORGANIZATION ( #217, #44 ) ;
#191 = DIRECTION ( 'NONE',  ( 1.000000000000000000, 0.0000000000000000000, 0.0000000000000000000 ) ) ;
#192 = CARTESIAN_POINT ( 'NONE',  ( 0.0000000000000000000, 12.85209876302663200, 0.4964673542870964300 ) ) ;
#193 = VERTEX_POINT ( 'NONE', #166 ) ;
#194 = EDGE_CURVE ( 'NONE', #147, #128, #33, .T. ) ;
#195 = PRODUCT ( '110-1225E UVFS pl-cx 25.4 F350', '110-1225E UVFS pl-cx 25.4 F350', '', ( #198 ) ) ;
#196 = CARTESIAN_POINT ( 'NONE',  ( 12.69999999999999900, 2.442490654175340100E-015, 0.4847689102531440000 ) ) ;
#197 = VERTEX_POINT ( 'NONE', #215 ) ;
#198 = MECHANICAL_CONTEXT ( 'NONE', #125, 'mechanical' ) ;
#199 = CC_DESIGN_PERSON_AND_ORGANIZATION_ASSIGNMENT ( #169, #144, ( #131 ) ) ;
#200 = CARTESIAN_POINT ( 'NONE',  ( 8.499287724930070500, 12.85209876302663500, 0.6595936907967000500 ) ) ;
#201 = APPLICATION_CONTEXT ( 'configuration controlled 3d designs of mechanical parts and assemblies' ) ;
#202 = FACE_OUTER_BOUND ( 'NONE', #42, .T. ) ;
#203 = VERTEX_POINT ( 'NONE', #41 ) ;
#204 = CARTESIAN_POINT ( 'NONE',  ( 4.996003610813200500E-016, 2.442490654175340100E-015, 0.4847689102531440000 ) ) ;
#205 = CALENDAR_DATE ( 2018, 13, 12 ) ;
#206 = FACE_OUTER_BOUND ( 'NONE', #177, .T. ) ;
#207 = DIRECTION ( 'NONE',  ( 0.0000000000000000000, -1.000000000000000000, -6.664003749250640100E-016 ) ) ;
#208 = LOCAL_TIME ( 17, 0, 19.00000000000000000, #119 ) ;
#209 = CC_DESIGN_PERSON_AND_ORGANIZATION_ASSIGNMENT ( #80, #145, ( #195 ) ) ;
#210 = CARTESIAN_POINT ( 'NONE',  ( 4.996003610813200500E-016, 2.442490654175340100E-015, 0.4847689102531440000 ) ) ;
#211 = CARTESIAN_POINT ( 'NONE',  ( 4.251209299624277600, 12.85209876302663500, 0.4964673542871000400 ) ) ;
#212 = PERSON_AND_ORGANIZATION ( #217, #44 ) ;
#213 = CYLINDRICAL_SURFACE ( 'NONE', #168, 12.69999999999999900 ) ;
#214 = APPROVAL_ROLE ( '' ) ;
#215 = CARTESIAN_POINT ( 'NONE',  ( -12.69999999999999900, 3.997792089092478900E-015, 0.4847689102531440000 ) ) ;
#216 = EDGE_CURVE ( 'NONE', #203, #147, #234, .T. ) ;
#217 = PERSON ( 'UNSPECIFIED', 'UNSPECIFIED', 'UNSPECIFIED', ('UNSPECIFIED'), ('UNSPECIFIED'), ('UNSPECIFIED') ) ;
#218 = CC_DESIGN_PERSON_AND_ORGANIZATION_ASSIGNMENT ( #111, #40, ( #226 ) ) ;
#219 = EDGE_LOOP ( 'NONE', ( #148, #45 ) ) ;
#220 = PERSON_AND_ORGANIZATION ( #217, #44 ) ;
#221 = PRODUCT_DEFINITION ( 'UNKNOWN', '', #131, #127 ) ;
#222 = CARTESIAN_POINT ( 'NONE',  ( 4.263256414560599900E-014, 1.421085471520200100E-014, 166.5999999999999900 ) ) ;
#223 = AXIS2_PLACEMENT_3D ( 'NONE', #152, #174, #69 ) ;
#224 = DIRECTION ( 'NONE',  ( 1.000000000000000000, 0.0000000000000000000, 0.0000000000000000000 ) ) ;
#225 = LOCAL_TIME ( 17, 0, 19.00000000000000000, #32 ) ;
#226 = SECURITY_CLASSIFICATION ( '', '', #23 ) ;
#227 = VECTOR ( 'NONE', #39, 1000.000000000000000 ) ;
#228 = DATE_TIME_ROLE ( 'creation_date' ) ;
#229 = CARTESIAN_POINT ( 'NONE',  ( 4.263256414560599900E-014, -4.292560797368134100, -0.1658185438410127200 ) ) ;
#230 = ORIENTED_EDGE ( 'NONE', *, *, #163, .T. ) ;
#231 = CALENDAR_DATE ( 2018, 13, 12 ) ;
#232 = ORIENTED_EDGE ( 'NONE', *, *, #43, .F. ) ;
#233 = DIRECTION ( 'NONE',  ( 1.000000000000000000, 0.0000000000000000000, 0.0000000000000000000 ) ) ;
#234 = CIRCLE ( 'NONE', #30, 12.69999999999999900 ) ;
#235 = CARTESIAN_POINT ( 'NONE',  ( 0.0000000000000000000, -4.292560797368133200, -0.1658185438410163500 ) ) ;
ENDSEC;
END-ISO-10303-21;
