ISO-10303-21;
HEADER;
FILE_DESCRIPTION (( 'STEP AP203' ),
    '1' );
FILE_NAME ('110-1223E UVFS pl-cx 25.4 F300.STEP',
    '2018-12-13T15:00:30',
    ( '' ),
    ( '' ),
    'SwSTEP 2.0',
    'SolidWorks 2017',
    '' );
FILE_SCHEMA (( 'CONFIG_CONTROL_DESIGN' ));
ENDSEC;

DATA;
#1 = EDGE_LOOP ( 'NONE', ( #218, #90 ) ) ;
#2 = LOCAL_TIME ( 17, 0, 30.00000000000000000, #183 ) ;
#3 = CIRCLE ( 'NONE', #220, 12.69999999999999900 ) ;
#4 = PRODUCT ( '110-1223E UVFS pl-cx 25.4 F300', '110-1223E UVFS pl-cx 25.4 F300', '', ( #140 ) ) ;
#5 = VECTOR ( 'NONE', #79, 1000.000000000000000 ) ;
#6 = CARTESIAN_POINT ( 'NONE',  ( -1.734723475976807100E-015, 4.295618278464517400, -0.1936956973377297900 ) ) ;
#7 = AXIS2_PLACEMENT_3D ( 'NONE', #20, #215, #209 ) ;
#8 = APPROVAL_PERSON_ORGANIZATION ( #74, #68, #30 ) ;
#9 = PERSON_AND_ORGANIZATION ( #196, #105 ) ;
#10 = CARTESIAN_POINT ( 'NONE',  ( 4.996003610813200500E-016, 2.442490654175340100E-015, 0.5658620443038650000 ) ) ;
#11 = DIRECTION ( 'NONE',  ( 0.0000000000000000000, 0.0000000000000000000, 1.000000000000000000 ) ) ;
#12 = CARTESIAN_POINT ( 'NONE',  ( 12.79332616360803800, 4.295618278464517400, 0.3797492810296756400 ) ) ;
#13 = DIRECTION ( 'NONE',  ( 0.0000000000000000000, -1.000000000000000000, 0.0000000000000000000 ) ) ;
#14 = DATE_TIME_ROLE ( 'classification_date' ) ;
#15 =( GEOMETRIC_REPRESENTATION_CONTEXT ( 3 ) GLOBAL_UNCERTAINTY_ASSIGNED_CONTEXT ( ( #145 ) ) GLOBAL_UNIT_ASSIGNED_CONTEXT ( ( #190, #155, #26 ) ) REPRESENTATION_CONTEXT ( 'NONE', 'WORKASPACE' ) );
#16 = VECTOR ( 'NONE', #113, 1000.000000000000000 ) ;
#17 = PRODUCT_DEFINITION_SHAPE ( 'NONE', 'NONE',  #19 ) ;
#18 = LOCAL_TIME ( 17, 0, 30.00000000000000000, #73 ) ;
#19 = PRODUCT_DEFINITION ( 'UNKNOWN', '', #173, #124 ) ;
#20 = CARTESIAN_POINT ( 'NONE',  ( 0.0000000000000000000, 26.11199999999999800, 4.000000000000000000 ) ) ;
#21 = DIRECTION ( 'NONE',  ( 1.000000000000000000, 0.0000000000000000000, 0.0000000000000000000 ) ) ;
#22 = APPROVAL ( #103, 'UNSPECIFIED' ) ;
#23 = CIRCLE ( 'NONE', #201, 142.7999999999999800 ) ;
#24 = ORIENTED_EDGE ( 'NONE', *, *, #235, .T. ) ;
#25 = DIRECTION ( 'NONE',  ( -0.0000000000000000000, -0.0000000000000000000, -1.000000000000000000 ) ) ;
#26 =( NAMED_UNIT ( * ) SI_UNIT ( $, .STERADIAN. ) SOLID_ANGLE_UNIT ( ) );
#27 = PERSON_AND_ORGANIZATION ( #196, #105 ) ;
#28 = EDGE_LOOP ( 'NONE', ( #217, #24, #135 ) ) ;
#29 = EDGE_CURVE ( 'NONE', #87, #36, #3, .T. ) ;
#30 = APPROVAL_ROLE ( '' ) ;
#31 = AXIS2_PLACEMENT_3D ( 'NONE', #10, #133, #21 ) ;
#32 = ORIENTED_EDGE ( 'NONE', *, *, #107, .T. ) ;
#33 = CC_DESIGN_APPROVAL ( #68, ( #173 ) ) ;
#34 = CIRCLE ( 'NONE', #55, 12.69999999999999900 ) ;
#35 = ADVANCED_BREP_SHAPE_REPRESENTATION ( '110-1223E UVFS pl-cx 25.4 F300', ( #131, #62 ), #15 ) ;
#36 = VERTEX_POINT ( 'NONE', #94 ) ;
#37 =( BOUNDED_SURFACE ( )  B_SPLINE_SURFACE ( 3, 3, ( 
 ( #182, #185, #227, #70 ),
 ( #200, #71, #151, #187 ),
 ( #115, #188, #137, #12 ),
 ( #43, #164, #99, #204 ) ),
 .UNSPECIFIED., .F., .F., .F. ) 
 B_SPLINE_SURFACE_WITH_KNOTS ( ( 4, 4 ),
 ( 4, 4 ),
 ( 0.0000000000000000000, 1.000000000000000000 ),
 ( 0.0000000000000000000, 1.000000000000000000 ),
 .UNSPECIFIED. ) 
 GEOMETRIC_REPRESENTATION_ITEM ( )  RATIONAL_B_SPLINE_SURFACE ( (
 ( 1.000000000000000000, 0.9993312843576704900, 0.9993312843576704900, 1.000000000000000000),
 ( 0.9972945146154121900, 0.9966276081734794000, 0.9966276081734794000, 0.9972945146154121900),
 ( 0.9972945146154121900, 0.9966276081734794000, 0.9966276081734794000, 0.9972945146154121900),
 ( 1.000000000000000000, 0.9993312843576704900, 0.9993312843576704900, 1.000000000000000000) ) ) 
 REPRESENTATION_ITEM ( '' )  SURFACE ( )  );
#38 = CARTESIAN_POINT ( 'NONE',  ( -8.492703717222257300, 12.85198963798312600, 0.7697569157785377800 ) ) ;
#39 = DIRECTION ( 'NONE',  ( 1.000000000000000000, 0.0000000000000000000, 0.0000000000000000000 ) ) ;
#40 = CARTESIAN_POINT ( 'NONE',  ( -4.248482628703613700, -12.85198963798316600, 0.5795149693787580200 ) ) ;
#41 = CARTESIAN_POINT ( 'NONE',  ( -3.469446951953614200E-015, -12.85198963798316500, 0.5795149693787577900 ) ) ;
#42 = APPROVAL_PERSON_ORGANIZATION ( #9, #22, #104 ) ;
#43 = CARTESIAN_POINT ( 'NONE',  ( 2.924942263733478400E-014, 12.85198963798312200, 0.5795149693787471400 ) ) ;
#44 = LOCAL_TIME ( 17, 0, 30.00000000000000000, #93 ) ;
#45 = AXIS2_PLACEMENT_3D ( 'NONE', #229, #64, #95 ) ;
#46 = DIRECTION ( 'NONE',  ( 1.000000000000000000, 8.881784197001252300E-016, 0.0000000000000000000 ) ) ;
#47 = CARTESIAN_POINT ( 'NONE',  ( 2.925223053224293000E-014, 12.69999999999981100, 0.5658620443038657700 ) ) ;
#48 = CC_DESIGN_DATE_AND_TIME_ASSIGNMENT ( #132, #14, ( #233 ) ) ;
#49 = CALENDAR_DATE ( 2018, 13, 12 ) ;
#50 = CIRCLE ( 'NONE', #31, 12.69999999999999900 ) ;
#51 = APPROVAL_STATUS ( 'not_yet_approved' ) ;
#52 = APPROVAL_DATE_TIME ( #193, #22 ) ;
#53 = CC_DESIGN_PERSON_AND_ORGANIZATION_ASSIGNMENT ( #144, #102, ( #173 ) ) ;
#54 = PERSON_AND_ORGANIZATION ( #196, #105 ) ;
#55 = AXIS2_PLACEMENT_3D ( 'NONE', #63, #152, #228 ) ;
#56 = CARTESIAN_POINT ( 'NONE',  ( -3.469446951953614200E-015, 12.85198963798312200, 0.5795149693787577900 ) ) ;
#57 = ORIENTED_EDGE ( 'NONE', *, *, #235, .F. ) ;
#58 = CARTESIAN_POINT ( 'NONE',  ( -12.72414873446173400, 12.85198963798312200, 1.149859155281957000 ) ) ;
#59 = CARTESIAN_POINT ( 'NONE',  ( -8.492703717222257300, -12.85198963798316600, 0.7697569157785377800 ) ) ;
#60 = CIRCLE ( 'NONE', #194, 12.69999999999999900 ) ;
#61 = DIRECTION ( 'NONE',  ( 0.0000000000000000000, 0.0000000000000000000, 1.000000000000000000 ) ) ;
#62 = AXIS2_PLACEMENT_3D ( 'NONE', #166, #142, #81 ) ;
#63 = CARTESIAN_POINT ( 'NONE',  ( 4.996003610813200500E-016, 2.442490654175340100E-015, 4.000000000000000000 ) ) ;
#64 = DIRECTION ( 'NONE',  ( -0.0000000000000000000, -0.0000000000000000000, -1.000000000000000000 ) ) ;
#65 = ADVANCED_FACE ( 'NONE', ( #165 ), #114, .T. ) ;
#66 = EDGE_LOOP ( 'NONE', ( #199, #157, #108, #230, #222 ) ) ;
#67 = ADVANCED_FACE ( 'NONE', ( #86 ), #37, .T. ) ;
#68 = APPROVAL ( #119, 'UNSPECIFIED' ) ;
#69 = VERTEX_POINT ( 'NONE', #161 ) ;
#70 = CARTESIAN_POINT ( 'NONE',  ( 12.72414873446163400, -12.85198963798316500, 1.149859155281947500 ) ) ;
#71 = CARTESIAN_POINT ( 'NONE',  ( 4.271580370812730900, -4.295618278464559100, -0.1936956973377389200 ) ) ;
#72 = PRODUCT_RELATED_PRODUCT_CATEGORY ( 'detail', '', ( #4 ) ) ;
#73 = COORDINATED_UNIVERSAL_TIME_OFFSET ( 2, 0, .AHEAD. ) ;
#74 = PERSON_AND_ORGANIZATION ( #196, #105 ) ;
#75 = CARTESIAN_POINT ( 'NONE',  ( -8.538876032708346400, -4.295618278464559100, -0.002419461804555295100 ) ) ;
#76 = CARTESIAN_POINT ( 'NONE',  ( 4.996003610813200500E-016, 2.442490654175340100E-015, 0.5658620443038650000 ) ) ;
#77 = ORIENTED_EDGE ( 'NONE', *, *, #210, .F. ) ;
#78 = DIRECTION ( 'NONE',  ( 1.000000000000000000, -1.776356839400250500E-015, 0.0000000000000000000 ) ) ;
#79 = DIRECTION ( 'NONE',  ( 0.0000000000000000000, 0.0000000000000000000, 1.000000000000000000 ) ) ;
#80 = CC_DESIGN_PERSON_AND_ORGANIZATION_ASSIGNMENT ( #163, #195, ( #233 ) ) ;
#81 = DIRECTION ( 'NONE',  ( 1.000000000000000000, 0.0000000000000000000, 0.0000000000000000000 ) ) ;
#82 = CALENDAR_DATE ( 2018, 13, 12 ) ;
#83 = DATE_TIME_ROLE ( 'creation_date' ) ;
#84 = PERSON_AND_ORGANIZATION_ROLE ( 'creator' ) ;
#85 = APPLICATION_CONTEXT ( 'configuration controlled 3d designs of mechanical parts and assemblies' ) ;
#86 = FACE_OUTER_BOUND ( 'NONE', #28, .T. ) ;
#87 = VERTEX_POINT ( 'NONE', #186 ) ;
#88 = EDGE_LOOP ( 'NONE', ( #57, #126, #32 ) ) ;
#89 = CC_DESIGN_APPROVAL ( #92, ( #233 ) ) ;
#90 = ORIENTED_EDGE ( 'NONE', *, *, #29, .F. ) ;
#91 = CARTESIAN_POINT ( 'NONE',  ( -12.79332616360813900, -4.295618278464559100, 0.3797492810296860800 ) ) ;
#92 = APPROVAL ( #51, 'UNSPECIFIED' ) ;
#93 = COORDINATED_UNIVERSAL_TIME_OFFSET ( 2, 0, .AHEAD. ) ;
#94 = CARTESIAN_POINT ( 'NONE',  ( 12.69999999999999900, 2.442490654175340100E-015, 4.000000000000000000 ) ) ;
#95 = DIRECTION ( 'NONE',  ( 1.000000000000000000, 0.0000000000000000000, 0.0000000000000000000 ) ) ;
#96 = APPROVAL_DATE_TIME ( #211, #92 ) ;
#97 = SHAPE_DEFINITION_REPRESENTATION ( #17, #35 ) ;
#98 = DIRECTION ( 'NONE',  ( -0.0000000000000000000, -0.0000000000000000000, -1.000000000000000000 ) ) ;
#99 = CARTESIAN_POINT ( 'NONE',  ( 8.492703717222198600, 12.85198963798312600, 0.7697569157785348900 ) ) ;
#100 = CARTESIAN_POINT ( 'NONE',  ( 12.69999999999999900, 2.442490654175340100E-015, 0.5658620443038650000 ) ) ;
#101 = PERSON_AND_ORGANIZATION_ROLE ( 'design_supplier' ) ;
#102 = PERSON_AND_ORGANIZATION_ROLE ( 'creator' ) ;
#103 = APPROVAL_STATUS ( 'not_yet_approved' ) ;
#104 = APPROVAL_ROLE ( '' ) ;
#105 = ORGANIZATION ( 'UNSPECIFIED', 'UNSPECIFIED', '' ) ;
#106 = CYLINDRICAL_SURFACE ( 'NONE', #191, 12.69999999999999900 ) ;
#107 = EDGE_CURVE ( 'NONE', #180, #156, #60, .T. ) ;
#108 = ORIENTED_EDGE ( 'NONE', *, *, #29, .T. ) ;
#109 = CARTESIAN_POINT ( 'NONE',  ( -4.271580370812746000, 4.295618278464515600, -0.1936956973377297600 ) ) ;
#110 = AXIS2_PLACEMENT_3D ( 'NONE', #202, #61, #116 ) ;
#111 = CARTESIAN_POINT ( 'NONE',  ( -12.72414873446173400, -12.85198963798316500, 1.149859155281957000 ) ) ;
#112 = LOCAL_TIME ( 17, 0, 30.00000000000000000, #134 ) ;
#113 = DIRECTION ( 'NONE',  ( 0.0000000000000000000, 0.0000000000000000000, 1.000000000000000000 ) ) ;
#114 =( BOUNDED_SURFACE ( )  B_SPLINE_SURFACE ( 3, 3, ( 
 ( #111, #59, #40, #41 ),
 ( #91, #75, #160, #162 ),
 ( #181, #224, #109, #6 ),
 ( #58, #38, #159, #56 ) ),
 .UNSPECIFIED., .F., .F., .F. ) 
 B_SPLINE_SURFACE_WITH_KNOTS ( ( 4, 4 ),
 ( 4, 4 ),
 ( 0.0000000000000000000, 1.000000000000000000 ),
 ( 0.0000000000000000000, 1.000000000000000000 ),
 .UNSPECIFIED. ) 
 GEOMETRIC_REPRESENTATION_ITEM ( )  RATIONAL_B_SPLINE_SURFACE ( (
 ( 1.000000000000000000, 0.9993312843576704900, 0.9993312843576704900, 1.000000000000000000),
 ( 0.9972945146154121900, 0.9966276081734794000, 0.9966276081734794000, 0.9972945146154121900),
 ( 0.9972945146154121900, 0.9966276081734794000, 0.9966276081734794000, 0.9972945146154121900),
 ( 1.000000000000000000, 0.9993312843576704900, 0.9993312843576704900, 1.000000000000000000) ) ) 
 REPRESENTATION_ITEM ( '' )  SURFACE ( )  );
#115 = CARTESIAN_POINT ( 'NONE',  ( 2.940844308768423800E-014, 4.295618278464517400, -0.1936956973377406100 ) ) ;
#116 = DIRECTION ( 'NONE',  ( 1.000000000000000000, 0.0000000000000000000, 0.0000000000000000000 ) ) ;
#117 = CARTESIAN_POINT ( 'NONE',  ( 4.996003610813200500E-016, 2.442490654175340100E-015, 0.5658620443038650000 ) ) ;
#118 = APPLICATION_PROTOCOL_DEFINITION ( 'international standard', 'config_control_design', 1994, #85 ) ;
#119 = APPROVAL_STATUS ( 'not_yet_approved' ) ;
#120 = PERSON_AND_ORGANIZATION ( #196, #105 ) ;
#121 = LINE ( 'NONE', #149, #16 ) ;
#122 = APPLICATION_CONTEXT ( 'configuration controlled 3d designs of mechanical parts and assemblies' ) ;
#123 = ADVANCED_FACE ( 'NONE', ( #219 ), #212, .T. ) ;
#124 = DESIGN_CONTEXT ( 'detailed design', #85, 'design' ) ;
#125 = FACE_OUTER_BOUND ( 'NONE', #1, .T. ) ;
#126 = ORIENTED_EDGE ( 'NONE', *, *, #158, .T. ) ;
#127 = APPROVAL_DATE_TIME ( #177, #68 ) ;
#128 = DATE_AND_TIME ( #170, #44 ) ;
#129 = CC_DESIGN_DATE_AND_TIME_ASSIGNMENT ( #128, #83, ( #19 ) ) ;
#130 = ORIENTED_EDGE ( 'NONE', *, *, #179, .T. ) ;
#131 = MANIFOLD_SOLID_BREP ( 'Imported1', #167 ) ;
#132 = DATE_AND_TIME ( #49, #18 ) ;
#133 = DIRECTION ( 'NONE',  ( -0.0000000000000000000, -0.0000000000000000000, -1.000000000000000000 ) ) ;
#134 = COORDINATED_UNIVERSAL_TIME_OFFSET ( 2, 0, .AHEAD. ) ;
#135 = ORIENTED_EDGE ( 'NONE', *, *, #146, .T. ) ;
#136 = CARTESIAN_POINT ( 'NONE',  ( 12.69999999999999900, 2.442490654175340100E-015, 0.5658620443038650000 ) ) ;
#137 = CARTESIAN_POINT ( 'NONE',  ( 8.538876032708289500, 4.295618278464515600, -0.002419461804558927600 ) ) ;
#138 = APPROVAL_ROLE ( '' ) ;
#139 = LINE ( 'NONE', #136, #5 ) ;
#140 = MECHANICAL_CONTEXT ( 'NONE', #122, 'mechanical' ) ;
#141 = EDGE_CURVE ( 'NONE', #175, #69, #50, .T. ) ;
#142 = DIRECTION ( 'NONE',  ( 0.0000000000000000000, 0.0000000000000000000, 1.000000000000000000 ) ) ;
#143 = PERSON_AND_ORGANIZATION ( #196, #105 ) ;
#144 = PERSON_AND_ORGANIZATION ( #196, #105 ) ;
#145 = UNCERTAINTY_MEASURE_WITH_UNIT (LENGTH_MEASURE( 1.000000000000000100E-005 ), #190, 'distance_accuracy_value', 'NONE');
#146 = EDGE_CURVE ( 'NONE', #156, #175, #150, .T. ) ;
#147 = APPROVAL_PERSON_ORGANIZATION ( #120, #92, #138 ) ;
#148 = DIRECTION ( 'NONE',  ( -0.0000000000000000000, -0.0000000000000000000, -1.000000000000000000 ) ) ;
#149 = CARTESIAN_POINT ( 'NONE',  ( -12.69999999999999900, 3.997792089092478900E-015, 0.5658620443038650000 ) ) ;
#150 = CIRCLE ( 'NONE', #171, 12.69999999999999900 ) ;
#151 = CARTESIAN_POINT ( 'NONE',  ( 8.538876032708289500, -4.295618278464559100, -0.002419461804558060300 ) ) ;
#152 = DIRECTION ( 'NONE',  ( -0.0000000000000000000, -0.0000000000000000000, -1.000000000000000000 ) ) ;
#153 = CALENDAR_DATE ( 2018, 13, 12 ) ;
#154 = APPLICATION_PROTOCOL_DEFINITION ( 'international standard', 'config_control_design', 1994, #122 ) ;
#155 =( NAMED_UNIT ( * ) PLANE_ANGLE_UNIT ( ) SI_UNIT ( $, .RADIAN. ) );
#156 = VERTEX_POINT ( 'NONE', #47 ) ;
#157 = ORIENTED_EDGE ( 'NONE', *, *, #210, .T. ) ;
#158 = EDGE_CURVE ( 'NONE', #69, #180, #178, .T. ) ;
#159 = CARTESIAN_POINT ( 'NONE',  ( -4.248482628703613700, 12.85198963798312600, 0.5795149693787580200 ) ) ;
#160 = CARTESIAN_POINT ( 'NONE',  ( -4.271580370812746000, -4.295618278464559100, -0.1936956973377290100 ) ) ;
#161 = CARTESIAN_POINT ( 'NONE',  ( 2.925223053224293000E-014, -12.69999999999983600, 0.5658620443038657700 ) ) ;
#162 = CARTESIAN_POINT ( 'NONE',  ( -1.734723475976807100E-015, -4.295618278464559100, -0.1936956973377290100 ) ) ;
#163 = PERSON_AND_ORGANIZATION ( #196, #105 ) ;
#164 = CARTESIAN_POINT ( 'NONE',  ( 4.248482628703597700, 12.85198963798312600, 0.5795149693787481300 ) ) ;
#165 = FACE_OUTER_BOUND ( 'NONE', #88, .T. ) ;
#166 = CARTESIAN_POINT ( 'NONE',  ( 0.0000000000000000000, 0.0000000000000000000, 0.0000000000000000000 ) ) ;
#167 = CLOSED_SHELL ( 'NONE', ( #67, #174, #65, #123, #216 ) ) ;
#168 = DIRECTION ( 'NONE',  ( 1.000000000000000000, 0.0000000000000000000, 0.0000000000000000000 ) ) ;
#169 = DIRECTION ( 'NONE',  ( 1.000000000000000000, 0.0000000000000000000, 2.056625150099659900E-016 ) ) ;
#170 = CALENDAR_DATE ( 2018, 13, 12 ) ;
#171 = AXIS2_PLACEMENT_3D ( 'NONE', #117, #98, #78 ) ;
#172 = SECURITY_CLASSIFICATION_LEVEL ( 'unclassified' ) ;
#173 = PRODUCT_DEFINITION_FORMATION_WITH_SPECIFIED_SOURCE ( 'ANY', '', #4, .NOT_KNOWN. ) ;
#174 = ADVANCED_FACE ( 'NONE', ( #184 ), #106, .T. ) ;
#175 = VERTEX_POINT ( 'NONE', #100 ) ;
#176 = CC_DESIGN_PERSON_AND_ORGANIZATION_ASSIGNMENT ( #54, #208, ( #4 ) ) ;
#177 = DATE_AND_TIME ( #153, #198 ) ;
#178 = CIRCLE ( 'NONE', #45, 12.69999999999999900 ) ;
#179 = EDGE_CURVE ( 'NONE', #36, #87, #34, .T. ) ;
#180 = VERTEX_POINT ( 'NONE', #189 ) ;
#181 = CARTESIAN_POINT ( 'NONE',  ( -12.79332616360813900, 4.295618278464517400, 0.3797492810296853600 ) ) ;
#182 = CARTESIAN_POINT ( 'NONE',  ( 2.924942263733478400E-014, -12.85198963798316500, 0.5795149693787471400 ) ) ;
#183 = COORDINATED_UNIVERSAL_TIME_OFFSET ( 2, 0, .AHEAD. ) ;
#184 = FACE_OUTER_BOUND ( 'NONE', #66, .T. ) ;
#185 = CARTESIAN_POINT ( 'NONE',  ( 4.248482628703597700, -12.85198963798316600, 0.5795149693787481300 ) ) ;
#186 = CARTESIAN_POINT ( 'NONE',  ( -12.69999999999999900, 3.997792089092478900E-015, 4.000000000000000000 ) ) ;
#187 = CARTESIAN_POINT ( 'NONE',  ( 12.79332616360803800, -4.295618278464559100, 0.3797492810296765300 ) ) ;
#188 = CARTESIAN_POINT ( 'NONE',  ( 4.271580370812730900, 4.295618278464515600, -0.1936956973377397800 ) ) ;
#189 = CARTESIAN_POINT ( 'NONE',  ( -12.69999999999999900, 3.997792089092478900E-015, 0.5658620443038650000 ) ) ;
#190 =( LENGTH_UNIT ( ) NAMED_UNIT ( * ) SI_UNIT ( .MILLI., .METRE. ) );
#191 = AXIS2_PLACEMENT_3D ( 'NONE', #203, #11, #168 ) ;
#192 = COORDINATED_UNIVERSAL_TIME_OFFSET ( 2, 0, .AHEAD. ) ;
#193 = DATE_AND_TIME ( #226, #112 ) ;
#194 = AXIS2_PLACEMENT_3D ( 'NONE', #76, #25, #46 ) ;
#195 = PERSON_AND_ORGANIZATION_ROLE ( 'classification_officer' ) ;
#196 = PERSON ( 'UNSPECIFIED', 'UNSPECIFIED', 'UNSPECIFIED', ('UNSPECIFIED'), ('UNSPECIFIED'), ('UNSPECIFIED') ) ;
#197 = EDGE_CURVE ( 'NONE', #175, #36, #139, .T. ) ;
#198 = LOCAL_TIME ( 17, 0, 30.00000000000000000, #192 ) ;
#199 = ORIENTED_EDGE ( 'NONE', *, *, #107, .F. ) ;
#200 = CARTESIAN_POINT ( 'NONE',  ( 2.940844308768423800E-014, -4.295618278464559100, -0.1936956973377397500 ) ) ;
#201 = AXIS2_PLACEMENT_3D ( 'NONE', #232, #169, #13 ) ;
#202 = CARTESIAN_POINT ( 'NONE',  ( 4.996003610813200500E-016, 2.442490654175340100E-015, 0.5658620443038650000 ) ) ;
#203 = CARTESIAN_POINT ( 'NONE',  ( 4.996003610813200500E-016, 2.442490654175340100E-015, 0.5658620443038650000 ) ) ;
#204 = CARTESIAN_POINT ( 'NONE',  ( 12.72414873446163400, 12.85198963798312200, 1.149859155281947500 ) ) ;
#205 = CC_DESIGN_APPROVAL ( #22, ( #19 ) ) ;
#206 = ORIENTED_EDGE ( 'NONE', *, *, #141, .F. ) ;
#207 = PLANE ( 'NONE',  #7 ) ;
#208 = PERSON_AND_ORGANIZATION_ROLE ( 'design_owner' ) ;
#209 = DIRECTION ( 'NONE',  ( 1.000000000000000000, 0.0000000000000000000, -0.0000000000000000000 ) ) ;
#210 = EDGE_CURVE ( 'NONE', #180, #87, #121, .T. ) ;
#211 = DATE_AND_TIME ( #82, #2 ) ;
#212 = CYLINDRICAL_SURFACE ( 'NONE', #110, 12.69999999999999900 ) ;
#213 = CC_DESIGN_SECURITY_CLASSIFICATION ( #233, ( #173 ) ) ;
#214 = CC_DESIGN_PERSON_AND_ORGANIZATION_ASSIGNMENT ( #143, #84, ( #19 ) ) ;
#215 = DIRECTION ( 'NONE',  ( 0.0000000000000000000, 0.0000000000000000000, 1.000000000000000000 ) ) ;
#216 = ADVANCED_FACE ( 'NONE', ( #125 ), #207, .T. ) ;
#217 = ORIENTED_EDGE ( 'NONE', *, *, #141, .T. ) ;
#218 = ORIENTED_EDGE ( 'NONE', *, *, #179, .F. ) ;
#219 = FACE_OUTER_BOUND ( 'NONE', #221, .T. ) ;
#220 = AXIS2_PLACEMENT_3D ( 'NONE', #225, #148, #39 ) ;
#221 = EDGE_LOOP ( 'NONE', ( #77, #234, #206, #231, #130 ) ) ;
#222 = ORIENTED_EDGE ( 'NONE', *, *, #146, .F. ) ;
#223 = CC_DESIGN_PERSON_AND_ORGANIZATION_ASSIGNMENT ( #27, #101, ( #173 ) ) ;
#224 = CARTESIAN_POINT ( 'NONE',  ( -8.538876032708346400, 4.295618278464515600, -0.002419461804556054100 ) ) ;
#225 = CARTESIAN_POINT ( 'NONE',  ( 4.996003610813200500E-016, 2.442490654175340100E-015, 4.000000000000000000 ) ) ;
#226 = CALENDAR_DATE ( 2018, 13, 12 ) ;
#227 = CARTESIAN_POINT ( 'NONE',  ( 8.492703717222198600, -12.85198963798316600, 0.7697569157785348900 ) ) ;
#228 = DIRECTION ( 'NONE',  ( 1.000000000000000000, 0.0000000000000000000, 0.0000000000000000000 ) ) ;
#229 = CARTESIAN_POINT ( 'NONE',  ( 4.996003610813200500E-016, 2.442490654175340100E-015, 0.5658620443038650000 ) ) ;
#230 = ORIENTED_EDGE ( 'NONE', *, *, #197, .F. ) ;
#231 = ORIENTED_EDGE ( 'NONE', *, *, #197, .T. ) ;
#232 = CARTESIAN_POINT ( 'NONE',  ( 0.0000000000000000000, -2.842170943040400100E-014, 142.8000000000000100 ) ) ;
#233 = SECURITY_CLASSIFICATION ( '', '', #172 ) ;
#234 = ORIENTED_EDGE ( 'NONE', *, *, #158, .F. ) ;
#235 = EDGE_CURVE ( 'NONE', #69, #156, #23, .T. ) ;
ENDSEC;
END-ISO-10303-21;
