ISO-10303-21;
HEADER;
FILE_DESCRIPTION (( 'STEP AP203' ),
    '1' );
FILE_NAME ('110-1221E UVFS pl-cx 25.4 F250.STEP',
    '2018-12-13T15:00:40',
    ( '' ),
    ( '' ),
    'SwSTEP 2.0',
    'SolidWorks 2017',
    '' );
FILE_SCHEMA (( 'CONFIG_CONTROL_DESIGN' ));
ENDSEC;

DATA;
#1 = DATE_AND_TIME ( #229, #23 ) ;
#2 = ORIENTED_EDGE ( 'NONE', *, *, #160, .T. ) ;
#3 = AXIS2_PLACEMENT_3D ( 'NONE', #149, #100, #25 ) ;
#4 = APPROVAL ( #107, 'UNSPECIFIED' ) ;
#5 = PERSON_AND_ORGANIZATION ( #110, #198 ) ;
#6 = CARTESIAN_POINT ( 'NONE',  ( 2.310710744810170100E-014, 4.300705771488296100, -0.2329158009596634700 ) ) ;
#7 = CALENDAR_DATE ( 2018, 13, 12 ) ;
#8 = CARTESIAN_POINT ( 'NONE',  ( 4.996003610813200500E-016, 2.442490654175340100E-015, 0.6796298180233040200 ) ) ;
#9 = CARTESIAN_POINT ( 'NONE',  ( -5.204170427930421300E-015, -4.300705771488289000, -0.2329158009596558900 ) ) ;
#10 = CYLINDRICAL_SURFACE ( 'NONE', #196, 12.69999999999999900 ) ;
#11 = CC_DESIGN_PERSON_AND_ORGANIZATION_ASSIGNMENT ( #49, #142, ( #177 ) ) ;
#12 = DIRECTION ( 'NONE',  ( 1.000000000000000000, 8.881784197001252300E-016, 0.0000000000000000000 ) ) ;
#13 = CARTESIAN_POINT ( 'NONE',  ( -12.69999999999999900, 3.997792089092478900E-015, 0.6796298180233040200 ) ) ;
#14 = CALENDAR_DATE ( 2018, 13, 12 ) ;
#15 = ORIENTED_EDGE ( 'NONE', *, *, #233, .T. ) ;
#16 = DIRECTION ( 'NONE',  ( -0.0000000000000000000, -0.0000000000000000000, -1.000000000000000000 ) ) ;
#17 = DIRECTION ( 'NONE',  ( 1.000000000000000000, 2.441897141834629800E-016, -3.576540790375509800E-017 ) ) ;
#18 = CARTESIAN_POINT ( 'NONE',  ( 2.842170943040400100E-014, 2.131628207280299900E-014, 119.0000000000000100 ) ) ;
#19 = EDGE_LOOP ( 'NONE', ( #162, #51, #201, #61, #131 ) ) ;
#20 = MANIFOLD_SOLID_BREP ( 'Imported1', #99 ) ;
#21 = CC_DESIGN_APPROVAL ( #4, ( #214 ) ) ;
#22 = CC_DESIGN_PERSON_AND_ORGANIZATION_ASSIGNMENT ( #193, #31, ( #214 ) ) ;
#23 = LOCAL_TIME ( 17, 0, 40.00000000000000000, #27 ) ;
#24 = ORIENTED_EDGE ( 'NONE', *, *, #212, .F. ) ;
#25 = DIRECTION ( 'NONE',  ( 1.000000000000000000, 0.0000000000000000000, 0.0000000000000000000 ) ) ;
#26 = DIRECTION ( 'NONE',  ( 0.0000000000000000000, 0.0000000000000000000, 1.000000000000000000 ) ) ;
#27 = COORDINATED_UNIVERSAL_TIME_OFFSET ( 2, 0, .AHEAD. ) ;
#28 = CARTESIAN_POINT ( 'NONE',  ( -8.673617379884035500E-015, 4.300705771488296100, -0.2329158009596675200 ) ) ;
#29 = ORIENTED_EDGE ( 'NONE', *, *, #200, .T. ) ;
#30 = APPROVAL_ROLE ( '' ) ;
#31 = PERSON_AND_ORGANIZATION_ROLE ( 'design_supplier' ) ;
#32 = APPROVAL_PERSON_ORGANIZATION ( #117, #137, #155 ) ;
#33 = AXIS2_PLACEMENT_3D ( 'NONE', #191, #85, #168 ) ;
#34 = CARTESIAN_POINT ( 'NONE',  ( 4.996003610813200500E-016, 2.442490654175340100E-015, 0.6796298180233040200 ) ) ;
#35 = APPROVAL_STATUS ( 'not_yet_approved' ) ;
#36 = AXIS2_PLACEMENT_3D ( 'NONE', #120, #146, #40 ) ;
#37 = COORDINATED_UNIVERSAL_TIME_OFFSET ( 2, 0, .AHEAD. ) ;
#38 = ORIENTED_EDGE ( 'NONE', *, *, #220, .F. ) ;
#39 = CC_DESIGN_APPROVAL ( #137, ( #129 ) ) ;
#40 = DIRECTION ( 'NONE',  ( 1.000000000000000000, 0.0000000000000000000, 0.0000000000000000000 ) ) ;
#41 = PERSON_AND_ORGANIZATION ( #110, #198 ) ;
#42 = CARTESIAN_POINT ( 'NONE',  ( 12.69999999999999900, 2.442490654175340100E-015, 0.6796298180233040200 ) ) ;
#43 = CARTESIAN_POINT ( 'NONE',  ( -12.80091272634179200, 4.300705771488292600, 0.4562323706078686400 ) ) ;
#44 = EDGE_CURVE ( 'NONE', #124, #206, #58, .T. ) ;
#45 = CARTESIAN_POINT ( 'NONE',  ( -8.481761566589668200, -12.85180825206471200, 0.9241690692963338000 ) ) ;
#46 = CARTESIAN_POINT ( 'NONE',  ( -4.277273228787127100, -4.300705771488289000, -0.2329158009596546100 ) ) ;
#47 = CARTESIAN_POINT ( 'NONE',  ( -1.734723475976807100E-015, -12.85180825206471100, 0.6960227859935486100 ) ) ;
#48 = APPROVAL_STATUS ( 'not_yet_approved' ) ;
#49 = PERSON_AND_ORGANIZATION ( #110, #198 ) ;
#50 = SECURITY_CLASSIFICATION_LEVEL ( 'unclassified' ) ;
#51 = ORIENTED_EDGE ( 'NONE', *, *, #212, .T. ) ;
#52 = ADVANCED_FACE ( 'NONE', ( #64 ), #221, .T. ) ;
#53 = DIRECTION ( 'NONE',  ( 1.000000000000000000, 0.0000000000000000000, 0.0000000000000000000 ) ) ;
#54 = CC_DESIGN_DATE_AND_TIME_ASSIGNMENT ( #144, #108, ( #129 ) ) ;
#55 = DESIGN_CONTEXT ( 'detailed design', #210, 'design' ) ;
#56 = UNCERTAINTY_MEASURE_WITH_UNIT (LENGTH_MEASURE( 1.000000000000000100E-005 ), #143, 'distance_accuracy_value', 'NONE');
#57 = APPROVAL_PERSON_ORGANIZATION ( #182, #104, #69 ) ;
#58 = CIRCLE ( 'NONE', #3, 12.69999999999999900 ) ;
#59 = AXIS2_PLACEMENT_3D ( 'NONE', #8, #230, #226 ) ;
#60 = CARTESIAN_POINT ( 'NONE',  ( 2.105224004489616300E-014, 12.85180825206471900, 0.6960227859935386200 ) ) ;
#61 = ORIENTED_EDGE ( 'NONE', *, *, #63, .F. ) ;
#62 = CARTESIAN_POINT ( 'NONE',  ( 8.548361488165339100, -4.300705771488286400, -0.002978082651714625800 ) ) ;
#63 = EDGE_CURVE ( 'NONE', #216, #206, #218, .T. ) ;
#64 = FACE_OUTER_BOUND ( 'NONE', #175, .T. ) ;
#65 = LINE ( 'NONE', #13, #194 ) ;
#66 =( NAMED_UNIT ( * ) SI_UNIT ( $, .STERADIAN. ) SOLID_ANGLE_UNIT ( ) );
#67 =( NAMED_UNIT ( * ) PLANE_ANGLE_UNIT ( ) SI_UNIT ( $, .RADIAN. ) );
#68 = CIRCLE ( 'NONE', #235, 119.0000000000000000 ) ;
#69 = APPROVAL_ROLE ( '' ) ;
#70 = COORDINATED_UNIVERSAL_TIME_OFFSET ( 2, 0, .AHEAD. ) ;
#71 = ORIENTED_EDGE ( 'NONE', *, *, #44, .F. ) ;
#72 = CC_DESIGN_PERSON_AND_ORGANIZATION_ASSIGNMENT ( #5, #213, ( #129 ) ) ;
#73 = EDGE_CURVE ( 'NONE', #216, #197, #118, .T. ) ;
#74 = LOCAL_TIME ( 17, 0, 40.00000000000000000, #215 ) ;
#75 = EDGE_LOOP ( 'NONE', ( #135, #2, #15 ) ) ;
#76 = CARTESIAN_POINT ( 'NONE',  ( 4.243949174582217800, -12.85180825206470900, 0.6960227859935523800 ) ) ;
#77 = CARTESIAN_POINT ( 'NONE',  ( 12.80091272634178900, 4.300705771488297900, 0.4562323706078697000 ) ) ;
#78 = DIRECTION ( 'NONE',  ( 0.0000000000000000000, 0.0000000000000000000, 1.000000000000000000 ) ) ;
#79 = FACE_OUTER_BOUND ( 'NONE', #19, .T. ) ;
#80 = CARTESIAN_POINT ( 'NONE',  ( -12.80091272634178900, -4.300705771488292600, 0.4562323706078803600 ) ) ;
#81 = AXIS2_PLACEMENT_3D ( 'NONE', #136, #123, #12 ) ;
#82 = CARTESIAN_POINT ( 'NONE',  ( -1.040834085586084300E-014, 12.85180825206471900, 0.6960227859935345100 ) ) ;
#83 = CARTESIAN_POINT ( 'NONE',  ( -12.70118135854088800, -12.85180825206471400, 1.379801833402735800 ) ) ;
#84 = CARTESIAN_POINT ( 'NONE',  ( -4.243949174582208000, 12.85180825206471600, 0.6960227859935358400 ) ) ;
#85 = DIRECTION ( 'NONE',  ( -0.0000000000000000000, -0.0000000000000000000, -1.000000000000000000 ) ) ;
#86 = ADVANCED_FACE ( 'NONE', ( #232 ), #185, .T. ) ;
#87 = DIRECTION ( 'NONE',  ( 1.000000000000000000, 0.0000000000000000000, 0.0000000000000000000 ) ) ;
#88 = DIRECTION ( 'NONE',  ( 0.0000000000000000000, 0.0000000000000000000, 1.000000000000000000 ) ) ;
#89 = ORIENTED_EDGE ( 'NONE', *, *, #73, .T. ) ;
#90 = MECHANICAL_CONTEXT ( 'NONE', #139, 'mechanical' ) ;
#91 = APPLICATION_PROTOCOL_DEFINITION ( 'international standard', 'config_control_design', 1994, #210 ) ;
#92 = APPROVAL_DATE_TIME ( #96, #104 ) ;
#93 = APPROVAL_DATE_TIME ( #217, #137 ) ;
#94 = ORIENTED_EDGE ( 'NONE', *, *, #63, .T. ) ;
#95 = AXIS2_PLACEMENT_3D ( 'NONE', #192, #174, #156 ) ;
#96 = DATE_AND_TIME ( #7, #223 ) ;
#97 = CARTESIAN_POINT ( 'NONE',  ( 12.80091272634178900, -4.300705771488286400, 0.4562323706078810800 ) ) ;
#98 = PRODUCT_DEFINITION ( 'UNKNOWN', '', #214, #55 ) ;
#99 = CLOSED_SHELL ( 'NONE', ( #52, #195, #154, #132, #86 ) ) ;
#100 = DIRECTION ( 'NONE',  ( -0.0000000000000000000, -0.0000000000000000000, -1.000000000000000000 ) ) ;
#101 = CARTESIAN_POINT ( 'NONE',  ( 12.70118135854088800, 12.85180825206472300, 1.379801833402722700 ) ) ;
#102 = CARTESIAN_POINT ( 'NONE',  ( -4.243949174582198200, -12.85180825206471200, 0.6960227859935498300 ) ) ;
#103 = LOCAL_TIME ( 17, 0, 40.00000000000000000, #180 ) ;
#104 = APPROVAL ( #48, 'UNSPECIFIED' ) ;
#105 = CARTESIAN_POINT ( 'NONE',  ( -8.548361488165335600, 4.300705771488292600, -0.002978082651729967300 ) ) ;
#106 = PERSON_AND_ORGANIZATION_ROLE ( 'creator' ) ;
#107 = APPROVAL_STATUS ( 'not_yet_approved' ) ;
#108 = DATE_TIME_ROLE ( 'classification_date' ) ;
#109 = VECTOR ( 'NONE', #78, 1000.000000000000000 ) ;
#110 = PERSON ( 'UNSPECIFIED', 'UNSPECIFIED', 'UNSPECIFIED', ('UNSPECIFIED'), ('UNSPECIFIED'), ('UNSPECIFIED') ) ;
#111 = CC_DESIGN_APPROVAL ( #104, ( #98 ) ) ;
#112 = CALENDAR_DATE ( 2018, 13, 12 ) ;
#113 =( GEOMETRIC_REPRESENTATION_CONTEXT ( 3 ) GLOBAL_UNCERTAINTY_ASSIGNED_CONTEXT ( ( #56 ) ) GLOBAL_UNIT_ASSIGNED_CONTEXT ( ( #143, #67, #66 ) ) REPRESENTATION_CONTEXT ( 'NONE', 'WORKASPACE' ) );
#114 = ORIENTED_EDGE ( 'NONE', *, *, #220, .T. ) ;
#115 = CC_DESIGN_DATE_AND_TIME_ASSIGNMENT ( #1, #231, ( #98 ) ) ;
#116 = CARTESIAN_POINT ( 'NONE',  ( 8.481761566589678800, -12.85180825206470700, 0.9241690692963373500 ) ) ;
#117 = PERSON_AND_ORGANIZATION ( #110, #198 ) ;
#118 = CIRCLE ( 'NONE', #36, 12.69999999999999900 ) ;
#119 = AXIS2_PLACEMENT_3D ( 'NONE', #234, #88, #87 ) ;
#120 = CARTESIAN_POINT ( 'NONE',  ( 4.996003610813200500E-016, 2.442490654175340100E-015, 0.6796298180233040200 ) ) ;
#121 = CIRCLE ( 'NONE', #81, 12.69999999999999900 ) ;
#122 = CARTESIAN_POINT ( 'NONE',  ( -12.69999999999999900, 3.997792089092478900E-015, 0.6796298180233040200 ) ) ;
#123 = DIRECTION ( 'NONE',  ( -0.0000000000000000000, -0.0000000000000000000, -1.000000000000000000 ) ) ;
#124 = VERTEX_POINT ( 'NONE', #204 ) ;
#125 = APPLICATION_PROTOCOL_DEFINITION ( 'international standard', 'config_control_design', 1994, #139 ) ;
#126 = CARTESIAN_POINT ( 'NONE',  ( 12.69999999999999900, 2.442490654175340100E-015, 0.6796298180233040200 ) ) ;
#127 = VERTEX_POINT ( 'NONE', #169 ) ;
#128 = AXIS2_PLACEMENT_3D ( 'NONE', #225, #26, #150 ) ;
#129 = SECURITY_CLASSIFICATION ( '', '', #50 ) ;
#130 = PERSON_AND_ORGANIZATION ( #110, #198 ) ;
#131 = ORIENTED_EDGE ( 'NONE', *, *, #200, .F. ) ;
#132 = ADVANCED_FACE ( 'NONE', ( #133 ), #10, .T. ) ;
#133 = FACE_OUTER_BOUND ( 'NONE', #203, .T. ) ;
#134 = CARTESIAN_POINT ( 'NONE',  ( 4.277273228787139600, 4.300705771488296100, -0.2329158009596636600 ) ) ;
#135 = ORIENTED_EDGE ( 'NONE', *, *, #205, .F. ) ;
#136 = CARTESIAN_POINT ( 'NONE',  ( 4.996003610813200500E-016, 2.442490654175340100E-015, 0.6796298180233040200 ) ) ;
#137 = APPROVAL ( #35, 'UNSPECIFIED' ) ;
#138 = CARTESIAN_POINT ( 'NONE',  ( 4.996003610813200500E-016, 2.442490654175340100E-015, 0.6796298180233040200 ) ) ;
#139 = APPLICATION_CONTEXT ( 'configuration controlled 3d designs of mechanical parts and assemblies' ) ;
#140 = CALENDAR_DATE ( 2018, 13, 12 ) ;
#141 = SHAPE_DEFINITION_REPRESENTATION ( #219, #179 ) ;
#142 = PERSON_AND_ORGANIZATION_ROLE ( 'design_owner' ) ;
#143 =( LENGTH_UNIT ( ) NAMED_UNIT ( * ) SI_UNIT ( .MILLI., .METRE. ) );
#144 = DATE_AND_TIME ( #14, #173 ) ;
#145 = CYLINDRICAL_SURFACE ( 'NONE', #59, 12.69999999999999900 ) ;
#146 = DIRECTION ( 'NONE',  ( -0.0000000000000000000, -0.0000000000000000000, -1.000000000000000000 ) ) ;
#147 = CARTESIAN_POINT ( 'NONE',  ( 8.481761566589675300, 12.85180825206472100, 0.9241690692963233600 ) ) ;
#148 = FACE_OUTER_BOUND ( 'NONE', #75, .T. ) ;
#149 = CARTESIAN_POINT ( 'NONE',  ( 4.996003610813200500E-016, 2.442490654175340100E-015, 4.000000000000000000 ) ) ;
#150 = DIRECTION ( 'NONE',  ( 1.000000000000000000, 0.0000000000000000000, -0.0000000000000000000 ) ) ;
#151 = AXIS2_PLACEMENT_3D ( 'NONE', #34, #16, #53 ) ;
#152 = DIRECTION ( 'NONE',  ( 0.0000000000000000000, 0.0000000000000000000, 1.000000000000000000 ) ) ;
#153 = APPROVAL_DATE_TIME ( #171, #4 ) ;
#154 = ADVANCED_FACE ( 'NONE', ( #148 ), #159, .T. ) ;
#155 = APPROVAL_ROLE ( '' ) ;
#156 = DIRECTION ( 'NONE',  ( 1.000000000000000000, 0.0000000000000000000, 0.0000000000000000000 ) ) ;
#157 = EDGE_LOOP ( 'NONE', ( #38, #71 ) ) ;
#158 = CC_DESIGN_PERSON_AND_ORGANIZATION_ASSIGNMENT ( #130, #211, ( #214 ) ) ;
#159 =( BOUNDED_SURFACE ( )  B_SPLINE_SURFACE ( 3, 3, ( 
 ( #83, #45, #102, #47 ),
 ( #80, #207, #46, #9 ),
 ( #43, #105, #188, #28 ),
 ( #190, #170, #84, #82 ) ),
 .UNSPECIFIED., .F., .F., .F. ) 
 B_SPLINE_SURFACE_WITH_KNOTS ( ( 4, 4 ),
 ( 4, 4 ),
 ( 0.0000000000000000000, 1.000000000000000000 ),
 ( 0.0000000000000000000, 1.000000000000000000 ),
 .UNSPECIFIED. ) 
 GEOMETRIC_REPRESENTATION_ITEM ( )  RATIONAL_B_SPLINE_SURFACE ( (
 ( 1.000000000000000000, 0.9990359949625086100, 0.9990359949625086100, 1.000000000000000000),
 ( 0.9961007126835095300, 0.9951404665786338600, 0.9951404665786338600, 0.9961007126835095300),
 ( 0.9961007126835095300, 0.9951404665786338600, 0.9951404665786338600, 0.9961007126835095300),
 ( 1.000000000000000000, 0.9990359949625086100, 0.9990359949625086100, 1.000000000000000000) ) ) 
 REPRESENTATION_ITEM ( '' )  SURFACE ( )  );
#160 = EDGE_CURVE ( 'NONE', #197, #164, #199, .T. ) ;
#161 = PRODUCT_RELATED_PRODUCT_CATEGORY ( 'detail', '', ( #177 ) ) ;
#162 = ORIENTED_EDGE ( 'NONE', *, *, #233, .F. ) ;
#163 = CARTESIAN_POINT ( 'NONE',  ( 12.70118135854089100, -12.85180825206470700, 1.379801833402736400 ) ) ;
#164 = VERTEX_POINT ( 'NONE', #122 ) ;
#165 = CARTESIAN_POINT ( 'NONE',  ( 4.243949174582211500, 12.85180825206471900, 0.6960227859935385100 ) ) ;
#166 = CARTESIAN_POINT ( 'NONE',  ( 8.548361488165339100, 4.300705771488297000, -0.002978082651726064100 ) ) ;
#167 = CIRCLE ( 'NONE', #95, 12.69999999999999900 ) ;
#168 = DIRECTION ( 'NONE',  ( 1.000000000000000000, 0.0000000000000000000, 0.0000000000000000000 ) ) ;
#169 = CARTESIAN_POINT ( 'NONE',  ( 2.108872375739234500E-014, 12.69999999999993700, 0.6796298180232964700 ) ) ;
#170 = CARTESIAN_POINT ( 'NONE',  ( -8.481761566589677100, 12.85180825206471600, 0.9241690692963197000 ) ) ;
#171 = DATE_AND_TIME ( #112, #103 ) ;
#172 = DIRECTION ( 'NONE',  ( 2.441897141834630300E-016, -1.000000000000000000, -4.664802624475447800E-016 ) ) ;
#173 = LOCAL_TIME ( 17, 0, 40.00000000000000000, #37 ) ;
#174 = DIRECTION ( 'NONE',  ( -0.0000000000000000000, -0.0000000000000000000, -1.000000000000000000 ) ) ;
#175 = EDGE_LOOP ( 'NONE', ( #89, #181, #29 ) ) ;
#176 = DIRECTION ( 'NONE',  ( 0.0000000000000000000, 0.0000000000000000000, 1.000000000000000000 ) ) ;
#177 = PRODUCT ( '110-1221E UVFS pl-cx 25.4 F250', '110-1221E UVFS pl-cx 25.4 F250', '', ( #90 ) ) ;
#178 = PERSON_AND_ORGANIZATION ( #110, #198 ) ;
#179 = ADVANCED_BREP_SHAPE_REPRESENTATION ( '110-1221E UVFS pl-cx 25.4 F250', ( #20, #119 ), #113 ) ;
#180 = COORDINATED_UNIVERSAL_TIME_OFFSET ( 2, 0, .AHEAD. ) ;
#181 = ORIENTED_EDGE ( 'NONE', *, *, #205, .T. ) ;
#182 = PERSON_AND_ORGANIZATION ( #110, #198 ) ;
#183 = CC_DESIGN_SECURITY_CLASSIFICATION ( #129, ( #214 ) ) ;
#184 = CARTESIAN_POINT ( 'NONE',  ( 2.520748367435549400E-014, -4.300705771488289000, -0.2329158009596520000 ) ) ;
#185 = PLANE ( 'NONE',  #128 ) ;
#186 = CIRCLE ( 'NONE', #151, 12.69999999999999900 ) ;
#187 = CARTESIAN_POINT ( 'NONE',  ( 2.732879881252087000E-014, -12.85180825206471100, 0.6960227859935525000 ) ) ;
#188 = CARTESIAN_POINT ( 'NONE',  ( -4.277273228787131600, 4.300705771488294400, -0.2329158009596661600 ) ) ;
#189 = DIRECTION ( 'NONE',  ( 1.000000000000000000, 0.0000000000000000000, 0.0000000000000000000 ) ) ;
#190 = CARTESIAN_POINT ( 'NONE',  ( -12.70118135854089500, 12.85180825206471600, 1.379801833402721800 ) ) ;
#191 = CARTESIAN_POINT ( 'NONE',  ( 4.996003610813200500E-016, 2.442490654175340100E-015, 0.6796298180233040200 ) ) ;
#192 = CARTESIAN_POINT ( 'NONE',  ( 4.996003610813200500E-016, 2.442490654175340100E-015, 4.000000000000000000 ) ) ;
#193 = PERSON_AND_ORGANIZATION ( #110, #198 ) ;
#194 = VECTOR ( 'NONE', #176, 1000.000000000000000 ) ;
#195 = ADVANCED_FACE ( 'NONE', ( #79 ), #145, .T. ) ;
#196 = AXIS2_PLACEMENT_3D ( 'NONE', #138, #152, #189 ) ;
#197 = VERTEX_POINT ( 'NONE', #208 ) ;
#198 = ORGANIZATION ( 'UNSPECIFIED', 'UNSPECIFIED', '' ) ;
#199 = CIRCLE ( 'NONE', #33, 12.69999999999999900 ) ;
#200 = EDGE_CURVE ( 'NONE', #127, #216, #121, .T. ) ;
#201 = ORIENTED_EDGE ( 'NONE', *, *, #44, .T. ) ;
#202 = CARTESIAN_POINT ( 'NONE',  ( 4.277273228787140400, -4.300705771488287300, -0.2329158009596521700 ) ) ;
#203 = EDGE_LOOP ( 'NONE', ( #24, #209, #224, #94, #114 ) ) ;
#204 = CARTESIAN_POINT ( 'NONE',  ( -12.69999999999999900, 3.997792089092478900E-015, 4.000000000000000000 ) ) ;
#205 = EDGE_CURVE ( 'NONE', #197, #127, #68, .T. ) ;
#206 = VERTEX_POINT ( 'NONE', #227 ) ;
#207 = CARTESIAN_POINT ( 'NONE',  ( -8.548361488165332000, -4.300705771488290800, -0.002978082651718203700 ) ) ;
#208 = CARTESIAN_POINT ( 'NONE',  ( 2.729114249765227000E-014, -12.69999999999991400, 0.6796298180232964700 ) ) ;
#209 = ORIENTED_EDGE ( 'NONE', *, *, #160, .F. ) ;
#210 = APPLICATION_CONTEXT ( 'configuration controlled 3d designs of mechanical parts and assemblies' ) ;
#211 = PERSON_AND_ORGANIZATION_ROLE ( 'creator' ) ;
#212 = EDGE_CURVE ( 'NONE', #164, #124, #65, .T. ) ;
#213 = PERSON_AND_ORGANIZATION_ROLE ( 'classification_officer' ) ;
#214 = PRODUCT_DEFINITION_FORMATION_WITH_SPECIFIED_SOURCE ( 'ANY', '', #177, .NOT_KNOWN. ) ;
#215 = COORDINATED_UNIVERSAL_TIME_OFFSET ( 2, 0, .AHEAD. ) ;
#216 = VERTEX_POINT ( 'NONE', #126 ) ;
#217 = DATE_AND_TIME ( #140, #74 ) ;
#218 = LINE ( 'NONE', #42, #109 ) ;
#219 = PRODUCT_DEFINITION_SHAPE ( 'NONE', 'NONE',  #98 ) ;
#220 = EDGE_CURVE ( 'NONE', #206, #124, #167, .T. ) ;
#221 =( BOUNDED_SURFACE ( )  B_SPLINE_SURFACE ( 3, 3, ( 
 ( #187, #76, #116, #163 ),
 ( #184, #202, #62, #97 ),
 ( #6, #134, #166, #77 ),
 ( #60, #165, #147, #101 ) ),
 .UNSPECIFIED., .F., .F., .F. ) 
 B_SPLINE_SURFACE_WITH_KNOTS ( ( 4, 4 ),
 ( 4, 4 ),
 ( 0.0000000000000000000, 1.000000000000000000 ),
 ( 0.0000000000000000000, 1.000000000000000000 ),
 .UNSPECIFIED. ) 
 GEOMETRIC_REPRESENTATION_ITEM ( )  RATIONAL_B_SPLINE_SURFACE ( (
 ( 1.000000000000000000, 0.9990359949625086100, 0.9990359949625086100, 1.000000000000000000),
 ( 0.9961007126835095300, 0.9951404665786338600, 0.9951404665786338600, 0.9961007126835095300),
 ( 0.9961007126835095300, 0.9951404665786338600, 0.9951404665786338600, 0.9961007126835095300),
 ( 1.000000000000000000, 0.9990359949625086100, 0.9990359949625086100, 1.000000000000000000) ) ) 
 REPRESENTATION_ITEM ( '' )  SURFACE ( )  );
#222 = APPROVAL_PERSON_ORGANIZATION ( #178, #4, #30 ) ;
#223 = LOCAL_TIME ( 17, 0, 40.00000000000000000, #70 ) ;
#224 = ORIENTED_EDGE ( 'NONE', *, *, #73, .F. ) ;
#225 = CARTESIAN_POINT ( 'NONE',  ( 0.0000000000000000000, 26.11199999999999800, 4.000000000000000000 ) ) ;
#226 = DIRECTION ( 'NONE',  ( 1.000000000000000000, 0.0000000000000000000, 0.0000000000000000000 ) ) ;
#227 = CARTESIAN_POINT ( 'NONE',  ( 12.69999999999999900, 2.442490654175340100E-015, 4.000000000000000000 ) ) ;
#228 = CC_DESIGN_PERSON_AND_ORGANIZATION_ASSIGNMENT ( #41, #106, ( #98 ) ) ;
#229 = CALENDAR_DATE ( 2018, 13, 12 ) ;
#230 = DIRECTION ( 'NONE',  ( 0.0000000000000000000, 0.0000000000000000000, 1.000000000000000000 ) ) ;
#231 = DATE_TIME_ROLE ( 'creation_date' ) ;
#232 = FACE_OUTER_BOUND ( 'NONE', #157, .T. ) ;
#233 = EDGE_CURVE ( 'NONE', #164, #127, #186, .T. ) ;
#234 = CARTESIAN_POINT ( 'NONE',  ( 0.0000000000000000000, 0.0000000000000000000, 0.0000000000000000000 ) ) ;
#235 = AXIS2_PLACEMENT_3D ( 'NONE', #18, #17, #172 ) ;
ENDSEC;
END-ISO-10303-21;
