ISO-10303-21;
HEADER;
FILE_DESCRIPTION (( 'STEP AP203' ),
    '1' );
FILE_NAME ('110-1217E UVFS pl-cx 25.4 F150.STEP',
    '2018-12-13T15:01:16',
    ( '' ),
    ( '' ),
    'SwSTEP 2.0',
    'SolidWorks 2017',
    '' );
FILE_SCHEMA (( 'CONFIG_CONTROL_DESIGN' ));
ENDSEC;

DATA;
#1 = ORIENTED_EDGE ( 'NONE', *, *, #43, .T. ) ;
#2 = CARTESIAN_POINT ( 'NONE',  ( 12.56681375649457700, -12.85074318094720500, 2.299062430705541600 ) ) ;
#3 = DIRECTION ( 'NONE',  ( 1.000000000000000000, 0.0000000000000000000, -0.0000000000000000000 ) ) ;
#4 = CARTESIAN_POINT ( 'NONE',  ( 1.365661675914547300E-014, -4.330715288372149800, -0.3928786660174200000 ) ) ;
#5 = CARTESIAN_POINT ( 'NONE',  ( 4.996003610813200500E-016, 2.442490654175340100E-015, 1.138397627491090100 ) ) ;
#6 = CYLINDRICAL_SURFACE ( 'NONE', #192, 12.69999999999999900 ) ;
#7 = APPLICATION_CONTEXT ( 'configuration controlled 3d designs of mechanical parts and assemblies' ) ;
#8 = DIRECTION ( 'NONE',  ( -0.0000000000000000000, -0.0000000000000000000, -1.000000000000000000 ) ) ;
#9 = EDGE_CURVE ( 'NONE', #220, #201, #105, .T. ) ;
#10 = DIRECTION ( 'NONE',  ( 0.0000000000000000000, 0.0000000000000000000, 1.000000000000000000 ) ) ;
#11 = PERSON_AND_ORGANIZATION ( #140, #219 ) ;
#12 = AXIS2_PLACEMENT_3D ( 'NONE', #177, #10, #89 ) ;
#13 = EDGE_LOOP ( 'NONE', ( #85, #1, #158 ) ) ;
#14 = EDGE_CURVE ( 'NONE', #71, #188, #100, .T. ) ;
#15 = COORDINATED_UNIVERSAL_TIME_OFFSET ( 2, 0, .AHEAD. ) ;
#16 = CYLINDRICAL_SURFACE ( 'NONE', #146, 12.69999999999999900 ) ;
#17 = CC_DESIGN_PERSON_AND_ORGANIZATION_ASSIGNMENT ( #118, #53, ( #101 ) ) ;
#18 = CC_DESIGN_PERSON_AND_ORGANIZATION_ASSIGNMENT ( #40, #148, ( #84 ) ) ;
#19 = CARTESIAN_POINT ( 'NONE',  ( -12.84566565010279500, -4.330715288372150700, 0.7655220931417136000 ) ) ;
#20 = VERTEX_POINT ( 'NONE', #62 ) ;
#21 = CARTESIAN_POINT ( 'NONE',  ( -12.84566565010279700, 4.330715288372159600, 0.7655220931416995000 ) ) ;
#22 = CARTESIAN_POINT ( 'NONE',  ( -4.217298551806690600, 12.85074318094722100, 1.165808071433126000 ) ) ;
#23 = AXIS2_PLACEMENT_3D ( 'NONE', #153, #47, #231 ) ;
#24 = FACE_OUTER_BOUND ( 'NONE', #13, .T. ) ;
#25 = DIRECTION ( 'NONE',  ( 0.0000000000000000000, 0.0000000000000000000, 1.000000000000000000 ) ) ;
#26 = PRODUCT_DEFINITION ( 'UNKNOWN', '', #101, #129 ) ;
#27 = DIRECTION ( 'NONE',  ( 1.000000000000000000, 0.0000000000000000000, 0.0000000000000000000 ) ) ;
#28 = CARTESIAN_POINT ( 'NONE',  ( 0.0000000000000000000, 26.11199999999999800, 4.000000000000000000 ) ) ;
#29 = ORIENTED_EDGE ( 'NONE', *, *, #202, .T. ) ;
#30 = CARTESIAN_POINT ( 'NONE',  ( 12.84566565010278600, -4.330715288372149800, 0.7655220931417100500 ) ) ;
#31 = DIRECTION ( 'NONE',  ( 1.000000000000000000, 0.0000000000000000000, 0.0000000000000000000 ) ) ;
#32 =( NAMED_UNIT ( * ) SI_UNIT ( $, .STERADIAN. ) SOLID_ANGLE_UNIT ( ) );
#33 = PERSON_AND_ORGANIZATION ( #140, #219 ) ;
#34 = DATE_AND_TIME ( #209, #149 ) ;
#35 = PERSON_AND_ORGANIZATION_ROLE ( 'creator' ) ;
#36 = APPROVAL_STATUS ( 'not_yet_approved' ) ;
#37 = APPROVAL_ROLE ( '' ) ;
#38 = ORIENTED_EDGE ( 'NONE', *, *, #14, .F. ) ;
#39 = CALENDAR_DATE ( 2018, 13, 12 ) ;
#40 = PERSON_AND_ORGANIZATION ( #140, #219 ) ;
#41 = PRODUCT_DEFINITION_SHAPE ( 'NONE', 'NONE',  #26 ) ;
#42 = ORIENTED_EDGE ( 'NONE', *, *, #196, .T. ) ;
#43 = EDGE_CURVE ( 'NONE', #188, #135, #59, .T. ) ;
#44 = FACE_OUTER_BOUND ( 'NONE', #87, .T. ) ;
#45 = FACE_OUTER_BOUND ( 'NONE', #91, .T. ) ;
#46 = CARTESIAN_POINT ( 'NONE',  ( 0.0000000000000000000, 12.85074318094721800, 1.165808071433124000 ) ) ;
#47 = DIRECTION ( 'NONE',  ( -0.0000000000000000000, -0.0000000000000000000, -1.000000000000000000 ) ) ;
#48 = DIRECTION ( 'NONE',  ( -0.0000000000000000000, -0.0000000000000000000, -1.000000000000000000 ) ) ;
#49 = DIRECTION ( 'NONE',  ( -0.0000000000000000000, -0.0000000000000000000, -1.000000000000000000 ) ) ;
#50 = CC_DESIGN_DATE_AND_TIME_ASSIGNMENT ( #34, #160, ( #26 ) ) ;
#51 = ADVANCED_FACE ( 'NONE', ( #45 ), #226, .T. ) ;
#52 = CARTESIAN_POINT ( 'NONE',  ( 4.310878492583226400, 4.330715288372161400, -0.3928786660174347600 ) ) ;
#53 = PERSON_AND_ORGANIZATION_ROLE ( 'design_supplier' ) ;
#54 = APPROVAL ( #36, 'UNSPECIFIED' ) ;
#55 = ORIENTED_EDGE ( 'NONE', *, *, #196, .F. ) ;
#56 = UNCERTAINTY_MEASURE_WITH_UNIT (LENGTH_MEASURE( 1.000000000000000100E-005 ), #75, 'distance_accuracy_value', 'NONE');
#57 = APPROVAL_DATE_TIME ( #73, #54 ) ;
#58 = AXIS2_PLACEMENT_3D ( 'NONE', #103, #48, #27 ) ;
#59 = CIRCLE ( 'NONE', #200, 71.40999999999999700 ) ;
#60 = CC_DESIGN_PERSON_AND_ORGANIZATION_ASSIGNMENT ( #33, #189, ( #92 ) ) ;
#61 = CARTESIAN_POINT ( 'NONE',  ( -12.69999999999999900, 3.997792089092478900E-015, 1.138397627491090100 ) ) ;
#62 = CARTESIAN_POINT ( 'NONE',  ( 12.69999999999999900, 2.442490654175340100E-015, 4.000000000000000000 ) ) ;
#63 = SHAPE_DEFINITION_REPRESENTATION ( #41, #195 ) ;
#64 =( BOUNDED_SURFACE ( )  B_SPLINE_SURFACE ( 3, 3, ( 
 ( #221, #218, #186, #2 ),
 ( #4, #120, #171, #30 ),
 ( #121, #52, #70, #142 ),
 ( #157, #155, #217, #235 ) ),
 .UNSPECIFIED., .F., .F., .T. ) 
 B_SPLINE_SURFACE_WITH_KNOTS ( ( 4, 4 ),
 ( 4, 4 ),
 ( 0.0000000000000000000, 1.000000000000000000 ),
 ( 0.0000000000000000000, 1.000000000000000000 ),
 .UNSPECIFIED. ) 
 GEOMETRIC_REPRESENTATION_ITEM ( )  RATIONAL_B_SPLINE_SURFACE ( (
 ( 1.000000000000000000, 0.9973057108564974400, 0.9973057108564974400, 1.000000000000000000),
 ( 0.9891162949032988900, 0.9864513296082794100, 0.9864513296082794100, 0.9891162949032988900),
 ( 0.9891162949032988900, 0.9864513296082794100, 0.9864513296082794100, 0.9891162949032988900),
 ( 1.000000000000000000, 0.9973057108564974400, 0.9973057108564974400, 1.000000000000000000) ) ) 
 REPRESENTATION_ITEM ( '' )  SURFACE ( )  );
#65 = CC_DESIGN_SECURITY_CLASSIFICATION ( #92, ( #101 ) ) ;
#66 = DIRECTION ( 'NONE',  ( 0.0000000000000000000, -1.000000000000000000, -3.886791151887539000E-016 ) ) ;
#67 = FACE_OUTER_BOUND ( 'NONE', #154, .T. ) ;
#68 = DIRECTION ( 'NONE',  ( -0.0000000000000000000, -0.0000000000000000000, -1.000000000000000000 ) ) ;
#69 = CC_DESIGN_APPROVAL ( #107, ( #92 ) ) ;
#70 = CARTESIAN_POINT ( 'NONE',  ( 8.604334855484149000, 4.330715288372160500, -0.005701913510158460000 ) ) ;
#71 = VERTEX_POINT ( 'NONE', #99 ) ;
#72 = CARTESIAN_POINT ( 'NONE',  ( 1.397149879171856100E-014, -12.69999999999998900, 1.138397627491095200 ) ) ;
#73 = DATE_AND_TIME ( #109, #176 ) ;
#74 = PERSON_AND_ORGANIZATION_ROLE ( 'creator' ) ;
#75 =( LENGTH_UNIT ( ) NAMED_UNIT ( * ) SI_UNIT ( .MILLI., .METRE. ) );
#76 = CIRCLE ( 'NONE', #58, 12.69999999999999900 ) ;
#77 = CC_DESIGN_APPROVAL ( #54, ( #26 ) ) ;
#78 = COORDINATED_UNIVERSAL_TIME_OFFSET ( 2, 0, .AHEAD. ) ;
#79 = ORIENTED_EDGE ( 'NONE', *, *, #43, .F. ) ;
#80 = CARTESIAN_POINT ( 'NONE',  ( -4.310878492583222000, -4.330715288372151600, -0.3928786660174213300 ) ) ;
#81 = CARTESIAN_POINT ( 'NONE',  ( -8.417553171058816700, 12.85074318094721900, 1.544580045742171700 ) ) ;
#82 = DIRECTION ( 'NONE',  ( 0.0000000000000000000, 0.0000000000000000000, 1.000000000000000000 ) ) ;
#83 = CARTESIAN_POINT ( 'NONE',  ( 4.996003610813200500E-016, 2.442490654175340100E-015, 1.138397627491090100 ) ) ;
#84 = PRODUCT ( '110-1217E UVFS pl-cx 25.4 F150', '110-1217E UVFS pl-cx 25.4 F150', '', ( #191 ) ) ;
#85 = ORIENTED_EDGE ( 'NONE', *, *, #14, .T. ) ;
#86 = DIRECTION ( 'NONE',  ( 0.0000000000000000000, 0.0000000000000000000, 1.000000000000000000 ) ) ;
#87 = EDGE_LOOP ( 'NONE', ( #190, #131, #165, #178, #127 ) ) ;
#88 = DATE_TIME_ROLE ( 'classification_date' ) ;
#89 = DIRECTION ( 'NONE',  ( 1.000000000000000000, 0.0000000000000000000, 0.0000000000000000000 ) ) ;
#90 = CC_DESIGN_PERSON_AND_ORGANIZATION_ASSIGNMENT ( #119, #35, ( #26 ) ) ;
#91 = EDGE_LOOP ( 'NONE', ( #79, #170, #173 ) ) ;
#92 = SECURITY_CLASSIFICATION ( '', '', #147 ) ;
#93 = EDGE_CURVE ( 'NONE', #201, #20, #76, .T. ) ;
#94 = EDGE_LOOP ( 'NONE', ( #55, #150 ) ) ;
#95 = LINE ( 'NONE', #205, #227 ) ;
#96 = AXIS2_PLACEMENT_3D ( 'NONE', #28, #86, #3 ) ;
#97 = CARTESIAN_POINT ( 'NONE',  ( -8.604334855484150800, -4.330715288372151600, -0.005701913510146100100 ) ) ;
#98 = APPROVAL_PERSON_ORGANIZATION ( #11, #108, #106 ) ;
#99 = CARTESIAN_POINT ( 'NONE',  ( 12.69999999999999900, 2.442490654175340100E-015, 1.138397627491090100 ) ) ;
#100 = CIRCLE ( 'NONE', #23, 12.69999999999999900 ) ;
#101 = PRODUCT_DEFINITION_FORMATION_WITH_SPECIFIED_SOURCE ( 'ANY', '', #84, .NOT_KNOWN. ) ;
#102 = DIRECTION ( 'NONE',  ( 1.000000000000000000, 0.0000000000000000000, 0.0000000000000000000 ) ) ;
#103 = CARTESIAN_POINT ( 'NONE',  ( 4.996003610813200500E-016, 2.442490654175340100E-015, 4.000000000000000000 ) ) ;
#104 = APPLICATION_PROTOCOL_DEFINITION ( 'international standard', 'config_control_design', 1994, #7 ) ;
#105 = LINE ( 'NONE', #61, #145 ) ;
#106 = APPROVAL_ROLE ( '' ) ;
#107 = APPROVAL ( #210, 'UNSPECIFIED' ) ;
#108 = APPROVAL ( #161, 'UNSPECIFIED' ) ;
#109 = CALENDAR_DATE ( 2018, 13, 12 ) ;
#110 = PERSON_AND_ORGANIZATION ( #140, #219 ) ;
#111 = PERSON_AND_ORGANIZATION ( #140, #219 ) ;
#112 = CARTESIAN_POINT ( 'NONE',  ( -4.217298551806695000, -12.85074318094720700, 1.165808071433140200 ) ) ;
#113 = LOCAL_TIME ( 17, 1, 16.00000000000000000, #78 ) ;
#114 = CARTESIAN_POINT ( 'NONE',  ( -8.604334855484150800, 4.330715288372159600, -0.005701913510160303200 ) ) ;
#115 = CLOSED_SHELL ( 'NONE', ( #203, #214, #51, #182, #117 ) ) ;
#116 = AXIS2_PLACEMENT_3D ( 'NONE', #125, #122, #141 ) ;
#117 = ADVANCED_FACE ( 'NONE', ( #166 ), #222, .T. ) ;
#118 = PERSON_AND_ORGANIZATION ( #140, #219 ) ;
#119 = PERSON_AND_ORGANIZATION ( #140, #219 ) ;
#120 = CARTESIAN_POINT ( 'NONE',  ( 4.310878492583225500, -4.330715288372150700, -0.3928786660174208300 ) ) ;
#121 = CARTESIAN_POINT ( 'NONE',  ( 1.365661675914547000E-014, 4.330715288372161400, -0.3928786660174338800 ) ) ;
#122 = DIRECTION ( 'NONE',  ( -0.0000000000000000000, -0.0000000000000000000, -1.000000000000000000 ) ) ;
#123 = APPROVAL_DATE_TIME ( #168, #107 ) ;
#124 = EDGE_CURVE ( 'NONE', #188, #220, #228, .T. ) ;
#125 = CARTESIAN_POINT ( 'NONE',  ( 4.996003610813200500E-016, 2.442490654175340100E-015, 1.138397627491090100 ) ) ;
#126 = DATE_AND_TIME ( #193, #212 ) ;
#127 = ORIENTED_EDGE ( 'NONE', *, *, #223, .F. ) ;
#128 =( NAMED_UNIT ( * ) PLANE_ANGLE_UNIT ( ) SI_UNIT ( $, .RADIAN. ) );
#129 = DESIGN_CONTEXT ( 'detailed design', #7, 'design' ) ;
#130 = APPROVAL_PERSON_ORGANIZATION ( #215, #107, #37 ) ;
#131 = ORIENTED_EDGE ( 'NONE', *, *, #9, .T. ) ;
#132 = AXIS2_PLACEMENT_3D ( 'NONE', #5, #49, #204 ) ;
#133 = CIRCLE ( 'NONE', #132, 12.69999999999999900 ) ;
#134 = COORDINATED_UNIVERSAL_TIME_OFFSET ( 2, 0, .AHEAD. ) ;
#135 = VERTEX_POINT ( 'NONE', #172 ) ;
#136 = AXIS2_PLACEMENT_3D ( 'NONE', #225, #8, #164 ) ;
#137 = CARTESIAN_POINT ( 'NONE',  ( -12.56681375649458800, 12.85074318094721800, 2.299062430705531400 ) ) ;
#138 = CIRCLE ( 'NONE', #136, 12.69999999999999900 ) ;
#139 = DIRECTION ( 'NONE',  ( 1.000000000000000000, 8.367767716424150400E-032, -2.056337147698020000E-016 ) ) ;
#140 = PERSON ( 'UNSPECIFIED', 'UNSPECIFIED', 'UNSPECIFIED', ('UNSPECIFIED'), ('UNSPECIFIED'), ('UNSPECIFIED') ) ;
#141 = DIRECTION ( 'NONE',  ( 1.000000000000000000, 0.0000000000000000000, 0.0000000000000000000 ) ) ;
#142 = CARTESIAN_POINT ( 'NONE',  ( 12.84566565010278800, 4.330715288372160500, 0.7655220931416963900 ) ) ;
#143 = CC_DESIGN_PERSON_AND_ORGANIZATION_ASSIGNMENT ( #110, #74, ( #101 ) ) ;
#144 = CARTESIAN_POINT ( 'NONE',  ( 4.996003610813200500E-016, 2.442490654175340100E-015, 1.138397627491090100 ) ) ;
#145 = VECTOR ( 'NONE', #82, 1000.000000000000000 ) ;
#146 = AXIS2_PLACEMENT_3D ( 'NONE', #144, #174, #31 ) ;
#147 = SECURITY_CLASSIFICATION_LEVEL ( 'unclassified' ) ;
#148 = PERSON_AND_ORGANIZATION_ROLE ( 'design_owner' ) ;
#149 = LOCAL_TIME ( 17, 1, 16.00000000000000000, #163 ) ;
#150 = ORIENTED_EDGE ( 'NONE', *, *, #93, .F. ) ;
#151 = EDGE_CURVE ( 'NONE', #220, #135, #133, .T. ) ;
#152 = CARTESIAN_POINT ( 'NONE',  ( -4.310878492583222000, 4.330715288372159600, -0.3928786660174356000 ) ) ;
#153 = CARTESIAN_POINT ( 'NONE',  ( 4.996003610813200500E-016, 2.442490654175340100E-015, 1.138397627491090100 ) ) ;
#154 = EDGE_LOOP ( 'NONE', ( #199, #181, #38, #29, #42 ) ) ;
#155 = CARTESIAN_POINT ( 'NONE',  ( 4.217298551806698500, 12.85074318094722100, 1.165808071433126900 ) ) ;
#156 = DIRECTION ( 'NONE',  ( 1.000000000000000000, 0.0000000000000000000, 0.0000000000000000000 ) ) ;
#157 = CARTESIAN_POINT ( 'NONE',  ( 1.397713530312985000E-014, 12.85074318094721800, 1.165808071433127600 ) ) ;
#158 = ORIENTED_EDGE ( 'NONE', *, *, #223, .T. ) ;
#159 = CARTESIAN_POINT ( 'NONE',  ( 4.996003610813200500E-016, 2.442490654175340100E-015, 4.000000000000000000 ) ) ;
#160 = DATE_TIME_ROLE ( 'creation_date' ) ;
#161 = APPROVAL_STATUS ( 'not_yet_approved' ) ;
#162 = DATE_AND_TIME ( #39, #187 ) ;
#163 = COORDINATED_UNIVERSAL_TIME_OFFSET ( 2, 0, .AHEAD. ) ;
#164 = DIRECTION ( 'NONE',  ( 1.000000000000000000, -8.881784197001252300E-016, 0.0000000000000000000 ) ) ;
#165 = ORIENTED_EDGE ( 'NONE', *, *, #93, .T. ) ;
#166 = FACE_OUTER_BOUND ( 'NONE', #94, .T. ) ;
#167 = CC_DESIGN_APPROVAL ( #108, ( #101 ) ) ;
#168 = DATE_AND_TIME ( #208, #113 ) ;
#169 = CARTESIAN_POINT ( 'NONE',  ( -3.469446951953614200E-015, 4.330715288372159600, -0.3928786660174375400 ) ) ;
#170 = ORIENTED_EDGE ( 'NONE', *, *, #124, .T. ) ;
#171 = CARTESIAN_POINT ( 'NONE',  ( 8.604334855484147200, -4.330715288372150700, -0.005701913510144690700 ) ) ;
#172 = CARTESIAN_POINT ( 'NONE',  ( 1.397149879171856100E-014, 12.69999999999999800, 1.138397627491095200 ) ) ;
#173 = ORIENTED_EDGE ( 'NONE', *, *, #151, .T. ) ;
#174 = DIRECTION ( 'NONE',  ( 0.0000000000000000000, 0.0000000000000000000, 1.000000000000000000 ) ) ;
#175 = APPROVAL_DATE_TIME ( #126, #108 ) ;
#176 = LOCAL_TIME ( 17, 1, 16.00000000000000000, #134 ) ;
#177 = CARTESIAN_POINT ( 'NONE',  ( 0.0000000000000000000, 0.0000000000000000000, 0.0000000000000000000 ) ) ;
#178 = ORIENTED_EDGE ( 'NONE', *, *, #202, .F. ) ;
#179 = CARTESIAN_POINT ( 'NONE',  ( -8.417553171058815000, -12.85074318094720900, 1.544580045742185700 ) ) ;
#180 = CARTESIAN_POINT ( 'NONE',  ( -5.204170427930421300E-015, -12.85074318094720500, 1.165808071433138000 ) ) ;
#181 = ORIENTED_EDGE ( 'NONE', *, *, #124, .F. ) ;
#182 = ADVANCED_FACE ( 'NONE', ( #67 ), #16, .T. ) ;
#183 = CARTESIAN_POINT ( 'NONE',  ( -12.69999999999999900, 3.997792089092478900E-015, 1.138397627491090100 ) ) ;
#184 = DIRECTION ( 'NONE',  ( 0.0000000000000000000, 0.0000000000000000000, 1.000000000000000000 ) ) ;
#185 = CARTESIAN_POINT ( 'NONE',  ( -12.69999999999999900, 3.997792089092478900E-015, 4.000000000000000000 ) ) ;
#186 = CARTESIAN_POINT ( 'NONE',  ( 8.417553171058811400, -12.85074318094720700, 1.544580045742187200 ) ) ;
#187 = LOCAL_TIME ( 17, 1, 16.00000000000000000, #15 ) ;
#188 = VERTEX_POINT ( 'NONE', #72 ) ;
#189 = PERSON_AND_ORGANIZATION_ROLE ( 'classification_officer' ) ;
#190 = ORIENTED_EDGE ( 'NONE', *, *, #151, .F. ) ;
#191 = MECHANICAL_CONTEXT ( 'NONE', #206, 'mechanical' ) ;
#192 = AXIS2_PLACEMENT_3D ( 'NONE', #83, #25, #102 ) ;
#193 = CALENDAR_DATE ( 2018, 13, 12 ) ;
#194 = PRODUCT_RELATED_PRODUCT_CATEGORY ( 'detail', '', ( #84 ) ) ;
#195 = ADVANCED_BREP_SHAPE_REPRESENTATION ( '110-1217E UVFS pl-cx 25.4 F150', ( #233, #12 ), #197 ) ;
#196 = EDGE_CURVE ( 'NONE', #20, #201, #232, .T. ) ;
#197 =( GEOMETRIC_REPRESENTATION_CONTEXT ( 3 ) GLOBAL_UNCERTAINTY_ASSIGNED_CONTEXT ( ( #56 ) ) GLOBAL_UNIT_ASSIGNED_CONTEXT ( ( #75, #128, #32 ) ) REPRESENTATION_CONTEXT ( 'NONE', 'WORKASPACE' ) );
#198 = COORDINATED_UNIVERSAL_TIME_OFFSET ( 2, 0, .AHEAD. ) ;
#199 = ORIENTED_EDGE ( 'NONE', *, *, #9, .F. ) ;
#200 = AXIS2_PLACEMENT_3D ( 'NONE', #230, #139, #66 ) ;
#201 = VERTEX_POINT ( 'NONE', #185 ) ;
#202 = EDGE_CURVE ( 'NONE', #71, #20, #95, .T. ) ;
#203 = ADVANCED_FACE ( 'NONE', ( #24 ), #64, .T. ) ;
#204 = DIRECTION ( 'NONE',  ( 1.000000000000000000, 0.0000000000000000000, 0.0000000000000000000 ) ) ;
#205 = CARTESIAN_POINT ( 'NONE',  ( 12.69999999999999900, 2.442490654175340100E-015, 1.138397627491090100 ) ) ;
#206 = APPLICATION_CONTEXT ( 'configuration controlled 3d designs of mechanical parts and assemblies' ) ;
#207 = AXIS2_PLACEMENT_3D ( 'NONE', #159, #68, #156 ) ;
#208 = CALENDAR_DATE ( 2018, 13, 12 ) ;
#209 = CALENDAR_DATE ( 2018, 13, 12 ) ;
#210 = APPROVAL_STATUS ( 'not_yet_approved' ) ;
#211 = APPLICATION_PROTOCOL_DEFINITION ( 'international standard', 'config_control_design', 1994, #206 ) ;
#212 = LOCAL_TIME ( 17, 1, 16.00000000000000000, #198 ) ;
#213 = CARTESIAN_POINT ( 'NONE',  ( -3.469446951953614200E-015, -4.330715288372150700, -0.3928786660174232200 ) ) ;
#214 = ADVANCED_FACE ( 'NONE', ( #44 ), #6, .T. ) ;
#215 = PERSON_AND_ORGANIZATION ( #140, #219 ) ;
#216 = APPROVAL_PERSON_ORGANIZATION ( #111, #54, #224 ) ;
#217 = CARTESIAN_POINT ( 'NONE',  ( 8.417553171058816700, 12.85074318094722100, 1.544580045742173900 ) ) ;
#218 = CARTESIAN_POINT ( 'NONE',  ( 4.217298551806697700, -12.85074318094720700, 1.165808071433140900 ) ) ;
#219 = ORGANIZATION ( 'UNSPECIFIED', 'UNSPECIFIED', '' ) ;
#220 = VERTEX_POINT ( 'NONE', #183 ) ;
#221 = CARTESIAN_POINT ( 'NONE',  ( 1.397713530312985400E-014, -12.85074318094720500, 1.165808071433141400 ) ) ;
#222 = PLANE ( 'NONE',  #96 ) ;
#223 = EDGE_CURVE ( 'NONE', #135, #71, #138, .T. ) ;
#224 = APPROVAL_ROLE ( '' ) ;
#225 = CARTESIAN_POINT ( 'NONE',  ( 4.996003610813200500E-016, 2.442490654175340100E-015, 1.138397627491090100 ) ) ;
#226 =( BOUNDED_SURFACE ( )  B_SPLINE_SURFACE ( 3, 3, ( 
 ( #234, #179, #112, #180 ),
 ( #19, #97, #80, #213 ),
 ( #21, #114, #152, #169 ),
 ( #137, #81, #22, #46 ) ),
 .UNSPECIFIED., .F., .F., .F. ) 
 B_SPLINE_SURFACE_WITH_KNOTS ( ( 4, 4 ),
 ( 4, 4 ),
 ( 0.0000000000000000000, 1.000000000000000000 ),
 ( 0.0000000000000000000, 1.000000000000000000 ),
 .UNSPECIFIED. ) 
 GEOMETRIC_REPRESENTATION_ITEM ( )  RATIONAL_B_SPLINE_SURFACE ( (
 ( 1.000000000000000000, 0.9973057108564974400, 0.9973057108564974400, 1.000000000000000000),
 ( 0.9891162949032988900, 0.9864513296082794100, 0.9864513296082794100, 0.9891162949032988900),
 ( 0.9891162949032988900, 0.9864513296082794100, 0.9864513296082794100, 0.9891162949032988900),
 ( 1.000000000000000000, 0.9973057108564974400, 0.9973057108564974400, 1.000000000000000000) ) ) 
 REPRESENTATION_ITEM ( '' )  SURFACE ( )  );
#227 = VECTOR ( 'NONE', #184, 1000.000000000000000 ) ;
#228 = CIRCLE ( 'NONE', #116, 12.69999999999999900 ) ;
#229 = CC_DESIGN_DATE_AND_TIME_ASSIGNMENT ( #162, #88, ( #92 ) ) ;
#230 = CARTESIAN_POINT ( 'NONE',  ( 2.842170943040400100E-014, 7.105427357601000300E-015, 71.40999999999999700 ) ) ;
#231 = DIRECTION ( 'NONE',  ( 1.000000000000000000, 0.0000000000000000000, 0.0000000000000000000 ) ) ;
#232 = CIRCLE ( 'NONE', #207, 12.69999999999999900 ) ;
#233 = MANIFOLD_SOLID_BREP ( 'Imported1', #115 ) ;
#234 = CARTESIAN_POINT ( 'NONE',  ( -12.56681375649458600, -12.85074318094720700, 2.299062430705545200 ) ) ;
#235 = CARTESIAN_POINT ( 'NONE',  ( 12.56681375649458200, 12.85074318094721800, 2.299062430705528700 ) ) ;
ENDSEC;
END-ISO-10303-21;
