ISO-10303-21;
HEADER;
FILE_DESCRIPTION (( 'STEP AP203' ),
    '1' );
FILE_NAME ('110-1216E UVFS pl-cx 25.4 F125.STEP',
    '2018-12-13T15:01:26',
    ( '' ),
    ( '' ),
    'SwSTEP 2.0',
    'SolidWorks 2017',
    '' );
FILE_SCHEMA (( 'CONFIG_CONTROL_DESIGN' ));
ENDSEC;

DATA;
#1 = CARTESIAN_POINT ( 'NONE',  ( 12.69999999999999900, 2.442490654175340100E-015, 4.000000000000000000 ) ) ;
#2 = DIRECTION ( 'NONE',  ( 1.000000000000000000, 0.0000000000000000000, 0.0000000000000000000 ) ) ;
#3 = LINE ( 'NONE', #37, #161 ) ;
#4 = CC_DESIGN_DATE_AND_TIME_ASSIGNMENT ( #200, #191, ( #54 ) ) ;
#5 = CARTESIAN_POINT ( 'NONE',  ( 7.105427357601000300E-015, 0.0000000000000000000, 59.50999999999999800 ) ) ;
#6 = CARTESIAN_POINT ( 'NONE',  ( -8.643638908624980700, -4.351775892739207800, -0.007470142450246458100 ) ) ;
#7 = LOCAL_TIME ( 17, 1, 26.00000000000000000, #188 ) ;
#8 = EDGE_LOOP ( 'NONE', ( #29, #56, #235, #52, #18 ) ) ;
#9 = CARTESIAN_POINT ( 'NONE',  ( -8.643638908624982500, 4.351775892739213200, -0.007470142450247433000 ) ) ;
#10 = PERSON_AND_ORGANIZATION_ROLE ( 'design_supplier' ) ;
#11 = EDGE_CURVE ( 'NONE', #231, #23, #49, .T. ) ;
#12 = DIRECTION ( 'NONE',  ( -0.0000000000000000000, -0.0000000000000000000, -1.000000000000000000 ) ) ;
#13 = APPROVAL_ROLE ( '' ) ;
#14 = APPROVAL ( #210, 'UNSPECIFIED' ) ;
#15 = EDGE_LOOP ( 'NONE', ( #91, #189, #123, #86, #132 ) ) ;
#16 = APPROVAL_STATUS ( 'not_yet_approved' ) ;
#17 = PERSON_AND_ORGANIZATION ( #148, #151 ) ;
#18 = ORIENTED_EDGE ( 'NONE', *, *, #19, .T. ) ;
#19 = EDGE_CURVE ( 'NONE', #104, #137, #84, .T. ) ;
#20 = CC_DESIGN_SECURITY_CLASSIFICATION ( #141, ( #24 ) ) ;
#21 = FACE_OUTER_BOUND ( 'NONE', #97, .T. ) ;
#22 = DIRECTION ( 'NONE',  ( -0.0000000000000000000, -0.0000000000000000000, -1.000000000000000000 ) ) ;
#23 = VERTEX_POINT ( 'NONE', #144 ) ;
#24 = PRODUCT_DEFINITION_FORMATION_WITH_SPECIFIED_SOURCE ( 'ANY', '', #80, .NOT_KNOWN. ) ;
#25 = DIRECTION ( 'NONE',  ( 0.0000000000000000000, 0.0000000000000000000, 1.000000000000000000 ) ) ;
#26 = CYLINDRICAL_SURFACE ( 'NONE', #168, 12.69999999999999900 ) ;
#27 = DIRECTION ( 'NONE',  ( 0.0000000000000000000, 0.0000000000000000000, 1.000000000000000000 ) ) ;
#28 = DATE_AND_TIME ( #118, #67 ) ;
#29 = ORIENTED_EDGE ( 'NONE', *, *, #107, .F. ) ;
#30 = DIRECTION ( 'NONE',  ( 1.000000000000000000, -1.776356839400250500E-015, 0.0000000000000000000 ) ) ;
#31 = EDGE_CURVE ( 'NONE', #137, #104, #215, .T. ) ;
#32 = APPROVAL_PERSON_ORGANIZATION ( #142, #125, #13 ) ;
#33 = CIRCLE ( 'NONE', #72, 12.69999999999999900 ) ;
#34 = EDGE_CURVE ( 'NONE', #231, #104, #3, .T. ) ;
#35 = CARTESIAN_POINT ( 'NONE',  ( 4.996003610813200500E-016, 2.442490654175340100E-015, 4.000000000000000000 ) ) ;
#36 = COORDINATED_UNIVERSAL_TIME_OFFSET ( 2, 0, .AHEAD. ) ;
#37 = CARTESIAN_POINT ( 'NONE',  ( 12.69999999999999900, 2.442490654175340100E-015, 1.370941700092870100 ) ) ;
#38 = PLANE ( 'NONE',  #65 ) ;
#39 = CARTESIAN_POINT ( 'NONE',  ( -12.47363340973636900, 12.85000064494568200, 2.758559022837101100 ) ) ;
#40 = CARTESIAN_POINT ( 'NONE',  ( 4.996003610813200500E-016, 2.442490654175340100E-015, 1.370941700092870100 ) ) ;
#41 = CARTESIAN_POINT ( 'NONE',  ( -6.938893903907227600E-015, 4.351775892739212300, -0.4754479041532074800 ) ) ;
#42 = APPROVAL_DATE_TIME ( #102, #139 ) ;
#43 = CARTESIAN_POINT ( 'NONE',  ( -4.198687339695220000, 12.85000064494568200, 1.403910960856301800 ) ) ;
#44 =( NAMED_UNIT ( * ) SI_UNIT ( $, .STERADIAN. ) SOLID_ANGLE_UNIT ( ) );
#45 = DATE_TIME_ROLE ( 'classification_date' ) ;
#46 = AXIS2_PLACEMENT_3D ( 'NONE', #179, #22, #110 ) ;
#47 = LOCAL_TIME ( 17, 1, 26.00000000000000000, #36 ) ;
#48 = AXIS2_PLACEMENT_3D ( 'NONE', #35, #53, #2 ) ;
#49 = CIRCLE ( 'NONE', #154, 12.69999999999999900 ) ;
#50 = ADVANCED_FACE ( 'NONE', ( #140 ), #38, .T. ) ;
#51 = PERSON_AND_ORGANIZATION ( #148, #151 ) ;
#52 = ORIENTED_EDGE ( 'NONE', *, *, #34, .T. ) ;
#53 = DIRECTION ( 'NONE',  ( -0.0000000000000000000, -0.0000000000000000000, -1.000000000000000000 ) ) ;
#54 = PRODUCT_DEFINITION ( 'UNKNOWN', '', #24, #219 ) ;
#55 = PERSON_AND_ORGANIZATION ( #148, #151 ) ;
#56 = ORIENTED_EDGE ( 'NONE', *, *, #117, .F. ) ;
#57 = CARTESIAN_POINT ( 'NONE',  ( 12.47363340973635300, -12.85000064494567700, 2.758559022837093100 ) ) ;
#58 = CARTESIAN_POINT ( 'NONE',  ( 4.996003610813200500E-016, 2.442490654175340100E-015, 1.370941700092870100 ) ) ;
#59 = CARTESIAN_POINT ( 'NONE',  ( 12.47363340973635300, 12.85000064494568200, 2.758559022837093100 ) ) ;
#60 = CIRCLE ( 'NONE', #162, 59.50999999999999800 ) ;
#61 = CARTESIAN_POINT ( 'NONE',  ( 4.996003610813200500E-016, 2.442490654175340100E-015, 1.370941700092870100 ) ) ;
#62 = PERSON_AND_ORGANIZATION_ROLE ( 'creator' ) ;
#63 = CIRCLE ( 'NONE', #88, 12.69999999999999900 ) ;
#64 = PERSON_AND_ORGANIZATION_ROLE ( 'design_owner' ) ;
#65 = AXIS2_PLACEMENT_3D ( 'NONE', #92, #167, #170 ) ;
#66 = CC_DESIGN_PERSON_AND_ORGANIZATION_ASSIGNMENT ( #74, #120, ( #54 ) ) ;
#67 = LOCAL_TIME ( 17, 1, 26.00000000000000000, #195 ) ;
#68 = PRODUCT_DEFINITION_SHAPE ( 'NONE', 'NONE',  #54 ) ;
#69 = VERTEX_POINT ( 'NONE', #169 ) ;
#70 = PERSON_AND_ORGANIZATION ( #148, #151 ) ;
#71 = CARTESIAN_POINT ( 'NONE',  ( 7.105427357600999500E-015, -4.351775892739207000, -0.4754479041532083100 ) ) ;
#72 = AXIS2_PLACEMENT_3D ( 'NONE', #58, #133, #95 ) ;
#73 = CARTESIAN_POINT ( 'NONE',  ( 7.105427357600998700E-015, 12.70000000000000300, 1.370941700092875000 ) ) ;
#74 = PERSON_AND_ORGANIZATION ( #148, #151 ) ;
#75 = ORIENTED_EDGE ( 'NONE', *, *, #225, .T. ) ;
#76 = CARTESIAN_POINT ( 'NONE',  ( 8.372831571571797600, -12.85000064494567700, 1.857226863961666700 ) ) ;
#77 = CARTESIAN_POINT ( 'NONE',  ( -12.87707535386161300, -4.351775892739207000, 0.9230143240595790600 ) ) ;
#78 = DIRECTION ( 'NONE',  ( -0.0000000000000000000, -0.0000000000000000000, -1.000000000000000000 ) ) ;
#79 = DIRECTION ( 'NONE',  ( 0.0000000000000000000, 0.0000000000000000000, 1.000000000000000000 ) ) ;
#80 = PRODUCT ( '110-1216E UVFS pl-cx 25.4 F125', '110-1216E UVFS pl-cx 25.4 F125', '', ( #98 ) ) ;
#81 = CARTESIAN_POINT ( 'NONE',  ( -5.204170427930420500E-015, -4.351775892739207000, -0.4754479041532062000 ) ) ;
#82 = APPROVAL_DATE_TIME ( #28, #125 ) ;
#83 =( NAMED_UNIT ( * ) PLANE_ANGLE_UNIT ( ) SI_UNIT ( $, .RADIAN. ) );
#84 = CIRCLE ( 'NONE', #46, 12.69999999999999900 ) ;
#85 = CC_DESIGN_PERSON_AND_ORGANIZATION_ASSIGNMENT ( #70, #64, ( #80 ) ) ;
#86 = ORIENTED_EDGE ( 'NONE', *, *, #34, .F. ) ;
#87 = MANIFOLD_SOLID_BREP ( 'Imported1', #157 ) ;
#88 = AXIS2_PLACEMENT_3D ( 'NONE', #116, #12, #172 ) ;
#89 = VECTOR ( 'NONE', #79, 1000.000000000000000 ) ;
#90 = CALENDAR_DATE ( 2018, 13, 12 ) ;
#91 = ORIENTED_EDGE ( 'NONE', *, *, #198, .F. ) ;
#92 = CARTESIAN_POINT ( 'NONE',  ( 0.0000000000000000000, 26.11199999999999800, 4.000000000000000000 ) ) ;
#93 = DIRECTION ( 'NONE',  ( 0.0000000000000000000, 0.0000000000000000000, 1.000000000000000000 ) ) ;
#94 = DIRECTION ( 'NONE',  ( 1.000000000000000000, 0.0000000000000000000, 0.0000000000000000000 ) ) ;
#95 = DIRECTION ( 'NONE',  ( 1.000000000000000000, 0.0000000000000000000, 0.0000000000000000000 ) ) ;
#96 = CIRCLE ( 'NONE', #101, 12.69999999999999900 ) ;
#97 = EDGE_LOOP ( 'NONE', ( #166, #180, #177 ) ) ;
#98 = MECHANICAL_CONTEXT ( 'NONE', #138, 'mechanical' ) ;
#99 = APPROVAL_ROLE ( '' ) ;
#100 = EDGE_LOOP ( 'NONE', ( #119, #183 ) ) ;
#101 = AXIS2_PLACEMENT_3D ( 'NONE', #40, #78, #30 ) ;
#102 = DATE_AND_TIME ( #90, #160 ) ;
#103 = ORIENTED_EDGE ( 'NONE', *, *, #11, .T. ) ;
#104 = VERTEX_POINT ( 'NONE', #1 ) ;
#105 = ADVANCED_FACE ( 'NONE', ( #230 ), #199, .T. ) ;
#106 = CC_DESIGN_PERSON_AND_ORGANIZATION_ASSIGNMENT ( #17, #10, ( #24 ) ) ;
#107 = EDGE_CURVE ( 'NONE', #69, #137, #193, .T. ) ;
#108 = CARTESIAN_POINT ( 'NONE',  ( 7.105427357600999500E-015, 4.351775892739212300, -0.4754479041532089800 ) ) ;
#109 = DIRECTION ( 'NONE',  ( -0.0000000000000000000, -0.0000000000000000000, -1.000000000000000000 ) ) ;
#110 = DIRECTION ( 'NONE',  ( 1.000000000000000000, 0.0000000000000000000, 0.0000000000000000000 ) ) ;
#111 = PERSON_AND_ORGANIZATION ( #148, #151 ) ;
#112 = DIRECTION ( 'NONE',  ( 0.0000000000000000000, -1.000000000000000000, 0.0000000000000000000 ) ) ;
#113 = CARTESIAN_POINT ( 'NONE',  ( 0.0000000000000000000, 0.0000000000000000000, 0.0000000000000000000 ) ) ;
#114 = CALENDAR_DATE ( 2018, 13, 12 ) ;
#115 = CARTESIAN_POINT ( 'NONE',  ( -5.204170427930421300E-015, -12.85000064494567700, 1.403910960856301000 ) ) ;
#116 = CARTESIAN_POINT ( 'NONE',  ( 4.996003610813200500E-016, 2.442490654175340100E-015, 1.370941700092870100 ) ) ;
#117 = EDGE_CURVE ( 'NONE', #23, #69, #33, .T. ) ;
#118 = CALENDAR_DATE ( 2018, 13, 12 ) ;
#119 = ORIENTED_EDGE ( 'NONE', *, *, #19, .F. ) ;
#120 = PERSON_AND_ORGANIZATION_ROLE ( 'creator' ) ;
#121 = CC_DESIGN_PERSON_AND_ORGANIZATION_ASSIGNMENT ( #55, #158, ( #141 ) ) ;
#122 = PERSON_AND_ORGANIZATION ( #148, #151 ) ;
#123 = ORIENTED_EDGE ( 'NONE', *, *, #31, .T. ) ;
#124 = DATE_AND_TIME ( #114, #7 ) ;
#125 = APPROVAL ( #16, 'UNSPECIFIED' ) ;
#126 = CARTESIAN_POINT ( 'NONE',  ( 8.643638908624968300, 4.351775892739213200, -0.007470142450251228600 ) ) ;
#127 = APPROVAL_PERSON_ORGANIZATION ( #122, #139, #99 ) ;
#128 = VERTEX_POINT ( 'NONE', #73 ) ;
#129 = AXIS2_PLACEMENT_3D ( 'NONE', #113, #155, #224 ) ;
#130 = DIRECTION ( 'NONE',  ( 1.000000000000000000, 0.0000000000000000000, 0.0000000000000000000 ) ) ;
#131 = CC_DESIGN_DATE_AND_TIME_ASSIGNMENT ( #124, #45, ( #141 ) ) ;
#132 = ORIENTED_EDGE ( 'NONE', *, *, #225, .F. ) ;
#133 = DIRECTION ( 'NONE',  ( -0.0000000000000000000, -0.0000000000000000000, -1.000000000000000000 ) ) ;
#134 = CARTESIAN_POINT ( 'NONE',  ( 7.105427357600998700E-015, 12.85000064494568200, 1.403910960856298500 ) ) ;
#135 = CARTESIAN_POINT ( 'NONE',  ( -4.334487914191699400, -4.351775892739207800, -0.4754479041532053700 ) ) ;
#136 = CARTESIAN_POINT ( 'NONE',  ( -5.204170427930421300E-015, 12.85000064494568200, 1.403910960856301000 ) ) ;
#137 = VERTEX_POINT ( 'NONE', #220 ) ;
#138 = APPLICATION_CONTEXT ( 'configuration controlled 3d designs of mechanical parts and assemblies' ) ;
#139 = APPROVAL ( #226, 'UNSPECIFIED' ) ;
#140 = FACE_OUTER_BOUND ( 'NONE', #100, .T. ) ;
#141 = SECURITY_CLASSIFICATION ( '', '', #209 ) ;
#142 = PERSON_AND_ORGANIZATION ( #148, #151 ) ;
#143 = CC_DESIGN_APPROVAL ( #125, ( #141 ) ) ;
#144 = CARTESIAN_POINT ( 'NONE',  ( 7.105427357600998700E-015, -12.70000000000000300, 1.370941700092875000 ) ) ;
#145 = ADVANCED_FACE ( 'NONE', ( #21 ), #227, .T. ) ;
#146 = ORIENTED_EDGE ( 'NONE', *, *, #204, .T. ) ;
#147 = AXIS2_PLACEMENT_3D ( 'NONE', #61, #25, #94 ) ;
#148 = PERSON ( 'UNSPECIFIED', 'UNSPECIFIED', 'UNSPECIFIED', ('UNSPECIFIED'), ('UNSPECIFIED'), ('UNSPECIFIED') ) ;
#149 = CARTESIAN_POINT ( 'NONE',  ( -12.47363340973636900, -12.85000064494567700, 2.758559022837101100 ) ) ;
#150 = CARTESIAN_POINT ( 'NONE',  ( 4.996003610813200500E-016, 2.442490654175340100E-015, 1.370941700092870100 ) ) ;
#151 = ORGANIZATION ( 'UNSPECIFIED', 'UNSPECIFIED', '' ) ;
#152 = CARTESIAN_POINT ( 'NONE',  ( 8.372831571571797600, 12.85000064494568200, 1.857226863961666700 ) ) ;
#153 =( LENGTH_UNIT ( ) NAMED_UNIT ( * ) SI_UNIT ( .MILLI., .METRE. ) );
#154 = AXIS2_PLACEMENT_3D ( 'NONE', #218, #109, #130 ) ;
#155 = DIRECTION ( 'NONE',  ( 0.0000000000000000000, 0.0000000000000000000, 1.000000000000000000 ) ) ;
#156 = UNCERTAINTY_MEASURE_WITH_UNIT (LENGTH_MEASURE( 1.000000000000000100E-005 ), #153, 'distance_accuracy_value', 'NONE');
#157 = CLOSED_SHELL ( 'NONE', ( #105, #197, #145, #178, #50 ) ) ;
#158 = PERSON_AND_ORGANIZATION_ROLE ( 'classification_officer' ) ;
#159 = FACE_OUTER_BOUND ( 'NONE', #8, .T. ) ;
#160 = LOCAL_TIME ( 17, 1, 26.00000000000000000, #211 ) ;
#161 = VECTOR ( 'NONE', #93, 1000.000000000000000 ) ;
#162 = AXIS2_PLACEMENT_3D ( 'NONE', #5, #184, #112 ) ;
#163 = APPROVAL_DATE_TIME ( #213, #14 ) ;
#164 = CARTESIAN_POINT ( 'NONE',  ( 12.87707535386159600, 4.351775892739212300, 0.9230143240595704000 ) ) ;
#165 = SHAPE_DEFINITION_REPRESENTATION ( #68, #171 ) ;
#166 = ORIENTED_EDGE ( 'NONE', *, *, #204, .F. ) ;
#167 = DIRECTION ( 'NONE',  ( 0.0000000000000000000, 0.0000000000000000000, 1.000000000000000000 ) ) ;
#168 = AXIS2_PLACEMENT_3D ( 'NONE', #150, #27, #190 ) ;
#169 = CARTESIAN_POINT ( 'NONE',  ( -12.69999999999999900, 3.997792089092478900E-015, 1.370941700092870100 ) ) ;
#170 = DIRECTION ( 'NONE',  ( 1.000000000000000000, 0.0000000000000000000, -0.0000000000000000000 ) ) ;
#171 = ADVANCED_BREP_SHAPE_REPRESENTATION ( '110-1216E UVFS pl-cx 25.4 F125', ( #87, #129 ), #232 ) ;
#172 = DIRECTION ( 'NONE',  ( 1.000000000000000000, 8.881784197001252300E-016, 0.0000000000000000000 ) ) ;
#173 = CARTESIAN_POINT ( 'NONE',  ( 4.198687339695214700, 12.85000064494568200, 1.403910960856298500 ) ) ;
#174 = CARTESIAN_POINT ( 'NONE',  ( -4.334487914191700300, 4.351775892739213200, -0.4754479041532064800 ) ) ;
#175 = APPLICATION_PROTOCOL_DEFINITION ( 'international standard', 'config_control_design', 1994, #138 ) ;
#176 = APPROVAL_PERSON_ORGANIZATION ( #51, #14, #194 ) ;
#177 = ORIENTED_EDGE ( 'NONE', *, *, #198, .T. ) ;
#178 = ADVANCED_FACE ( 'NONE', ( #159 ), #216, .T. ) ;
#179 = CARTESIAN_POINT ( 'NONE',  ( 4.996003610813200500E-016, 2.442490654175340100E-015, 4.000000000000000000 ) ) ;
#180 = ORIENTED_EDGE ( 'NONE', *, *, #117, .T. ) ;
#181 = CARTESIAN_POINT ( 'NONE',  ( 7.105427357600998700E-015, -12.85000064494567700, 1.403910960856298500 ) ) ;
#182 = CARTESIAN_POINT ( 'NONE',  ( 4.198687339695214700, -12.85000064494567700, 1.403910960856298500 ) ) ;
#183 = ORIENTED_EDGE ( 'NONE', *, *, #31, .F. ) ;
#184 = DIRECTION ( 'NONE',  ( 1.000000000000000000, 0.0000000000000000000, 0.0000000000000000000 ) ) ;
#185 = CARTESIAN_POINT ( 'NONE',  ( -8.372831571571810000, 12.85000064494568200, 1.857226863961670900 ) ) ;
#186 = CARTESIAN_POINT ( 'NONE',  ( 12.69999999999999900, 2.442490654175340100E-015, 1.370941700092870100 ) ) ;
#187 = CC_DESIGN_PERSON_AND_ORGANIZATION_ASSIGNMENT ( #111, #62, ( #24 ) ) ;
#188 = COORDINATED_UNIVERSAL_TIME_OFFSET ( 2, 0, .AHEAD. ) ;
#189 = ORIENTED_EDGE ( 'NONE', *, *, #107, .T. ) ;
#190 = DIRECTION ( 'NONE',  ( 1.000000000000000000, 0.0000000000000000000, 0.0000000000000000000 ) ) ;
#191 = DATE_TIME_ROLE ( 'creation_date' ) ;
#192 = APPLICATION_CONTEXT ( 'configuration controlled 3d designs of mechanical parts and assemblies' ) ;
#193 = LINE ( 'NONE', #222, #89 ) ;
#194 = APPROVAL_ROLE ( '' ) ;
#195 = COORDINATED_UNIVERSAL_TIME_OFFSET ( 2, 0, .AHEAD. ) ;
#196 = EDGE_LOOP ( 'NONE', ( #103, #146, #75 ) ) ;
#197 = ADVANCED_FACE ( 'NONE', ( #208 ), #26, .T. ) ;
#198 = EDGE_CURVE ( 'NONE', #69, #128, #63, .T. ) ;
#199 =( BOUNDED_SURFACE ( )  B_SPLINE_SURFACE ( 3, 3, ( 
 ( #181, #182, #76, #57 ),
 ( #71, #203, #202, #217 ),
 ( #108, #233, #126, #164 ),
 ( #134, #173, #152, #59 ) ),
 .UNSPECIFIED., .F., .F., .F. ) 
 B_SPLINE_SURFACE_WITH_KNOTS ( ( 4, 4 ),
 ( 4, 4 ),
 ( 0.0000000000000000000, 1.000000000000000000 ),
 ( 0.0000000000000000000, 1.000000000000000000 ),
 .UNSPECIFIED. ) 
 GEOMETRIC_REPRESENTATION_ITEM ( )  RATIONAL_B_SPLINE_SURFACE ( (
 ( 1.000000000000000000, 0.9961030506548106400, 0.9961030506548106400, 1.000000000000000000),
 ( 0.9842725484696544000, 0.9804368882064077300, 0.9804368882064077300, 0.9842725484696544000),
 ( 0.9842725484696544000, 0.9804368882064077300, 0.9804368882064077300, 0.9842725484696544000),
 ( 1.000000000000000000, 0.9961030506548106400, 0.9961030506548106400, 1.000000000000000000) ) ) 
 REPRESENTATION_ITEM ( '' )  SURFACE ( )  );
#200 = DATE_AND_TIME ( #234, #47 ) ;
#201 = CC_DESIGN_APPROVAL ( #14, ( #24 ) ) ;
#202 = CARTESIAN_POINT ( 'NONE',  ( 8.643638908624968300, -4.351775892739207800, -0.007470142450250686500 ) ) ;
#203 = CARTESIAN_POINT ( 'NONE',  ( 4.334487914191694100, -4.351775892739207800, -0.4754479041532083700 ) ) ;
#204 = EDGE_CURVE ( 'NONE', #23, #128, #60, .T. ) ;
#205 = LOCAL_TIME ( 17, 1, 26.00000000000000000, #229 ) ;
#206 = CARTESIAN_POINT ( 'NONE',  ( -8.372831571571810000, -12.85000064494567700, 1.857226863961670900 ) ) ;
#207 = CARTESIAN_POINT ( 'NONE',  ( -12.87707535386161500, 4.351775892739212300, 0.9230143240595781700 ) ) ;
#208 = FACE_OUTER_BOUND ( 'NONE', #15, .T. ) ;
#209 = SECURITY_CLASSIFICATION_LEVEL ( 'unclassified' ) ;
#210 = APPROVAL_STATUS ( 'not_yet_approved' ) ;
#211 = COORDINATED_UNIVERSAL_TIME_OFFSET ( 2, 0, .AHEAD. ) ;
#212 = APPLICATION_PROTOCOL_DEFINITION ( 'international standard', 'config_control_design', 1994, #192 ) ;
#213 = DATE_AND_TIME ( #214, #205 ) ;
#214 = CALENDAR_DATE ( 2018, 13, 12 ) ;
#215 = CIRCLE ( 'NONE', #48, 12.69999999999999900 ) ;
#216 = CYLINDRICAL_SURFACE ( 'NONE', #147, 12.69999999999999900 ) ;
#217 = CARTESIAN_POINT ( 'NONE',  ( 12.87707535386159600, -4.351775892739207000, 0.9230143240595710700 ) ) ;
#218 = CARTESIAN_POINT ( 'NONE',  ( 4.996003610813200500E-016, 2.442490654175340100E-015, 1.370941700092870100 ) ) ;
#219 = DESIGN_CONTEXT ( 'detailed design', #192, 'design' ) ;
#220 = CARTESIAN_POINT ( 'NONE',  ( -12.69999999999999900, 3.997792089092478900E-015, 4.000000000000000000 ) ) ;
#221 = CC_DESIGN_APPROVAL ( #139, ( #54 ) ) ;
#222 = CARTESIAN_POINT ( 'NONE',  ( -12.69999999999999900, 3.997792089092478900E-015, 1.370941700092870100 ) ) ;
#223 = CARTESIAN_POINT ( 'NONE',  ( -4.198687339695220000, -12.85000064494567700, 1.403910960856301800 ) ) ;
#224 = DIRECTION ( 'NONE',  ( 1.000000000000000000, 0.0000000000000000000, 0.0000000000000000000 ) ) ;
#225 = EDGE_CURVE ( 'NONE', #128, #231, #96, .T. ) ;
#226 = APPROVAL_STATUS ( 'not_yet_approved' ) ;
#227 =( BOUNDED_SURFACE ( )  B_SPLINE_SURFACE ( 3, 3, ( 
 ( #149, #206, #223, #115 ),
 ( #77, #6, #135, #81 ),
 ( #207, #9, #174, #41 ),
 ( #39, #185, #43, #136 ) ),
 .UNSPECIFIED., .F., .F., .T. ) 
 B_SPLINE_SURFACE_WITH_KNOTS ( ( 4, 4 ),
 ( 4, 4 ),
 ( 0.0000000000000000000, 1.000000000000000000 ),
 ( 0.0000000000000000000, 1.000000000000000000 ),
 .UNSPECIFIED. ) 
 GEOMETRIC_REPRESENTATION_ITEM ( )  RATIONAL_B_SPLINE_SURFACE ( (
 ( 1.000000000000000000, 0.9961030506548106400, 0.9961030506548106400, 1.000000000000000000),
 ( 0.9842725484696544000, 0.9804368882064077300, 0.9804368882064077300, 0.9842725484696544000),
 ( 0.9842725484696544000, 0.9804368882064077300, 0.9804368882064077300, 0.9842725484696544000),
 ( 1.000000000000000000, 0.9961030506548106400, 0.9961030506548106400, 1.000000000000000000) ) ) 
 REPRESENTATION_ITEM ( '' )  SURFACE ( )  );
#228 = PRODUCT_RELATED_PRODUCT_CATEGORY ( 'detail', '', ( #80 ) ) ;
#229 = COORDINATED_UNIVERSAL_TIME_OFFSET ( 2, 0, .AHEAD. ) ;
#230 = FACE_OUTER_BOUND ( 'NONE', #196, .T. ) ;
#231 = VERTEX_POINT ( 'NONE', #186 ) ;
#232 =( GEOMETRIC_REPRESENTATION_CONTEXT ( 3 ) GLOBAL_UNCERTAINTY_ASSIGNED_CONTEXT ( ( #156 ) ) GLOBAL_UNIT_ASSIGNED_CONTEXT ( ( #153, #83, #44 ) ) REPRESENTATION_CONTEXT ( 'NONE', 'WORKASPACE' ) );
#233 = CARTESIAN_POINT ( 'NONE',  ( 4.334487914191694100, 4.351775892739213200, -0.4754479041532090300 ) ) ;
#234 = CALENDAR_DATE ( 2018, 13, 12 ) ;
#235 = ORIENTED_EDGE ( 'NONE', *, *, #11, .F. ) ;
ENDSEC;
END-ISO-10303-21;
