ISO-10303-21;
HEADER;
FILE_DESCRIPTION (( 'STEP AP203' ),
    '1' );
FILE_NAME ('110-1211E UVFS pl-cx 25.4 F100.STEP',
    '2018-12-13T15:01:37',
    ( '' ),
    ( '' ),
    'SwSTEP 2.0',
    'SolidWorks 2017',
    '' );
FILE_SCHEMA (( 'CONFIG_CONTROL_DESIGN' ));
ENDSEC;

DATA;
#1 = CC_DESIGN_APPROVAL ( #159, ( #145 ) ) ;
#2 = PERSON_AND_ORGANIZATION ( #107, #141 ) ;
#3 = CARTESIAN_POINT ( 'NONE',  ( -12.30034609137239700, -12.84861107305672500, 3.447495773837933300 ) ) ;
#4 = EDGE_LOOP ( 'NONE', ( #221, #103, #204 ) ) ;
#5 = CALENDAR_DATE ( 2018, 13, 12 ) ;
#6 = CARTESIAN_POINT ( 'NONE',  ( 12.69999999999999900, 2.442490654175340100E-015, 4.000000000000000000 ) ) ;
#7 = EDGE_CURVE ( 'NONE', #150, #127, #72, .T. ) ;
#8 = PERSON_AND_ORGANIZATION ( #107, #141 ) ;
#9 = VERTEX_POINT ( 'NONE', #62 ) ;
#10 = CARTESIAN_POINT ( 'NONE',  ( 4.996003610813200500E-016, 2.442490654175340100E-015, 1.725121227140630200 ) ) ;
#11 =( NAMED_UNIT ( * ) PLANE_ANGLE_UNIT ( ) SI_UNIT ( $, .RADIAN. ) );
#12 = APPROVAL_ROLE ( '' ) ;
#13 = EDGE_CURVE ( 'NONE', #105, #229, #70, .T. ) ;
#14 = PERSON_AND_ORGANIZATION ( #107, #141 ) ;
#15 = VECTOR ( 'NONE', #219, 1000.000000000000000 ) ;
#16 =( BOUNDED_SURFACE ( )  B_SPLINE_SURFACE ( 3, 3, ( 
 ( #3, #168, #227, #214 ),
 ( #226, #35, #184, #155 ),
 ( #157, #97, #36, #181 ),
 ( #29, #196, #223, #77 ) ),
 .UNSPECIFIED., .F., .F., .T. ) 
 B_SPLINE_SURFACE_WITH_KNOTS ( ( 4, 4 ),
 ( 4, 4 ),
 ( 0.0000000000000000000, 1.000000000000000000 ),
 ( 0.0000000000000000000, 1.000000000000000000 ),
 .UNSPECIFIED. ) 
 GEOMETRIC_REPRESENTATION_ITEM ( )  RATIONAL_B_SPLINE_SURFACE ( (
 ( 1.000000000000000000, 0.9938604186506889700, 0.9938604186506889700, 1.000000000000000000),
 ( 0.9752641171399947200, 0.9692764037557497500, 0.9692764037557497500, 0.9752641171399947200),
 ( 0.9752641171399947200, 0.9692764037557497500, 0.9692764037557497500, 0.9752641171399947200),
 ( 1.000000000000000000, 0.9938604186506889700, 0.9938604186506889700, 1.000000000000000000) ) ) 
 REPRESENTATION_ITEM ( '' )  SURFACE ( )  );
#17 = DIRECTION ( 'NONE',  ( 0.0000000000000000000, 0.0000000000000000000, 1.000000000000000000 ) ) ;
#18 = SECURITY_CLASSIFICATION_LEVEL ( 'unclassified' ) ;
#19 = AXIS2_PLACEMENT_3D ( 'NONE', #10, #135, #193 ) ;
#20 = DIRECTION ( 'NONE',  ( 1.000000000000000000, 0.0000000000000000000, 0.0000000000000000000 ) ) ;
#21 = LINE ( 'NONE', #142, #15 ) ;
#22 = DIRECTION ( 'NONE',  ( -0.0000000000000000000, -0.0000000000000000000, -1.000000000000000000 ) ) ;
#23 = CARTESIAN_POINT ( 'NONE',  ( 4.996003610813200500E-016, 2.442490654175340100E-015, 1.725121227140630200 ) ) ;
#24 = CARTESIAN_POINT ( 'NONE',  ( 4.996003610813200500E-016, 2.442490654175340100E-015, 4.000000000000000000 ) ) ;
#25 = AXIS2_PLACEMENT_3D ( 'NONE', #201, #161, #20 ) ;
#26 = CARTESIAN_POINT ( 'NONE',  ( 12.30034609137239000, -12.84861107305672500, 3.447495773837923000 ) ) ;
#27 = CYLINDRICAL_SURFACE ( 'NONE', #194, 12.69999999999999900 ) ;
#28 = ORIENTED_EDGE ( 'NONE', *, *, #13, .F. ) ;
#29 = CARTESIAN_POINT ( 'NONE',  ( -12.30034609137239700, 12.84861107305674100, 3.447495773837933300 ) ) ;
#30 = EDGE_CURVE ( 'NONE', #98, #9, #117, .T. ) ;
#31 = CC_DESIGN_PERSON_AND_ORGANIZATION_ASSIGNMENT ( #222, #52, ( #145 ) ) ;
#32 = FACE_OUTER_BOUND ( 'NONE', #106, .T. ) ;
#33 = ORIENTED_EDGE ( 'NONE', *, *, #132, .T. ) ;
#34 = AXIS2_PLACEMENT_3D ( 'NONE', #202, #41, #120 ) ;
#35 = CARTESIAN_POINT ( 'NONE',  ( -8.717819056252288600, -4.391497936215757600, -0.01083347143405457800 ) ) ;
#36 = CARTESIAN_POINT ( 'NONE',  ( -4.379073787942937600, 4.391497936215772700, -0.6037725382629705000 ) ) ;
#37 = PRODUCT_RELATED_PRODUCT_CATEGORY ( 'detail', '', ( #89 ) ) ;
#38 = CARTESIAN_POINT ( 'NONE',  ( 12.69999999999999900, 2.442490654175340100E-015, 1.725121227140630200 ) ) ;
#39 = DIRECTION ( 'NONE',  ( 0.0000000000000000000, 0.0000000000000000000, 1.000000000000000000 ) ) ;
#40 = EDGE_CURVE ( 'NONE', #9, #150, #130, .T. ) ;
#41 = DIRECTION ( 'NONE',  ( -0.0000000000000000000, -0.0000000000000000000, -1.000000000000000000 ) ) ;
#42 = PERSON_AND_ORGANIZATION ( #107, #141 ) ;
#43 = CARTESIAN_POINT ( 'NONE',  ( 4.996003610813200500E-016, 2.442490654175340100E-015, 4.000000000000000000 ) ) ;
#44 = PRODUCT_DEFINITION_SHAPE ( 'NONE', 'NONE',  #114 ) ;
#45 = CARTESIAN_POINT ( 'NONE',  ( 7.105427357601000300E-015, 1.065814103640150000E-014, 47.60999999999999900 ) ) ;
#46 = CARTESIAN_POINT ( 'NONE',  ( 8.717819056252272600, -4.391497936215757600, -0.01083347143406390400 ) ) ;
#47 = ORIENTED_EDGE ( 'NONE', *, *, #40, .F. ) ;
#48 = APPROVAL_STATUS ( 'not_yet_approved' ) ;
#49 = APPROVAL_PERSON_ORGANIZATION ( #60, #159, #195 ) ;
#50 = ORIENTED_EDGE ( 'NONE', *, *, #207, .T. ) ;
#51 = APPLICATION_PROTOCOL_DEFINITION ( 'international standard', 'config_control_design', 1994, #166 ) ;
#52 = PERSON_AND_ORGANIZATION_ROLE ( 'classification_officer' ) ;
#53 = DATE_AND_TIME ( #163, #90 ) ;
#54 = ORIENTED_EDGE ( 'NONE', *, *, #7, .T. ) ;
#55 = DESIGN_CONTEXT ( 'detailed design', #166, 'design' ) ;
#56 = DIRECTION ( 'NONE',  ( 1.000000000000000000, 0.0000000000000000000, 0.0000000000000000000 ) ) ;
#57 = CALENDAR_DATE ( 2018, 13, 12 ) ;
#58 = ORIENTED_EDGE ( 'NONE', *, *, #30, .F. ) ;
#59 = CARTESIAN_POINT ( 'NONE',  ( 0.0000000000000000000, 0.0000000000000000000, 0.0000000000000000000 ) ) ;
#60 = PERSON_AND_ORGANIZATION ( #107, #141 ) ;
#61 = CC_DESIGN_DATE_AND_TIME_ASSIGNMENT ( #53, #182, ( #145 ) ) ;
#62 = CARTESIAN_POINT ( 'NONE',  ( -12.69999999999999900, 3.997792089092478900E-015, 1.725121227140630200 ) ) ;
#63 = PERSON_AND_ORGANIZATION ( #107, #141 ) ;
#64 = AXIS2_PLACEMENT_3D ( 'NONE', #24, #197, #101 ) ;
#65 = DIRECTION ( 'NONE',  ( 1.000000000000000000, 0.0000000000000000000, -3.084289765114799800E-016 ) ) ;
#66 = CC_DESIGN_SECURITY_CLASSIFICATION ( #145, ( #231 ) ) ;
#67 = DATE_AND_TIME ( #133, #179 ) ;
#68 = CIRCLE ( 'NONE', #64, 12.69999999999999900 ) ;
#69 = CARTESIAN_POINT ( 'NONE',  ( 12.30034609137239000, 12.84861107305674100, 3.447495773837923000 ) ) ;
#70 = CIRCLE ( 'NONE', #170, 12.69999999999999900 ) ;
#71 = APPROVAL_STATUS ( 'not_yet_approved' ) ;
#72 = CIRCLE ( 'NONE', #218, 12.69999999999999900 ) ;
#73 = CC_DESIGN_PERSON_AND_ORGANIZATION_ASSIGNMENT ( #14, #213, ( #231 ) ) ;
#74 = DATE_AND_TIME ( #126, #83 ) ;
#75 = AXIS2_PLACEMENT_3D ( 'NONE', #100, #215, #185 ) ;
#76 = APPLICATION_PROTOCOL_DEFINITION ( 'international standard', 'config_control_design', 1994, #167 ) ;
#77 = CARTESIAN_POINT ( 'NONE',  ( -1.734723475976807100E-014, 12.84861107305674100, 1.766513074447283900 ) ) ;
#78 = CARTESIAN_POINT ( 'NONE',  ( 4.163789750828413200, -12.84861107305672500, 1.766513074447277900 ) ) ;
#79 = LINE ( 'NONE', #38, #124 ) ;
#80 = DIRECTION ( 'NONE',  ( 0.0000000000000000000, 0.0000000000000000000, 1.000000000000000000 ) ) ;
#81 = CC_DESIGN_DATE_AND_TIME_ASSIGNMENT ( #211, #92, ( #114 ) ) ;
#82 = DIRECTION ( 'NONE',  ( 1.000000000000000000, 0.0000000000000000000, 0.0000000000000000000 ) ) ;
#83 = LOCAL_TIME ( 17, 1, 37.00000000000000000, #228 ) ;
#84 = ORIENTED_EDGE ( 'NONE', *, *, #119, .F. ) ;
#85 = CARTESIAN_POINT ( 'NONE',  ( 8.289233612811871800, -12.84861107305672500, 2.330302069308624300 ) ) ;
#86 = CARTESIAN_POINT ( 'NONE',  ( 4.163789750828413200, 12.84861107305674100, 1.766513074447277900 ) ) ;
#87 = EDGE_LOOP ( 'NONE', ( #158, #58, #147, #177, #144 ) ) ;
#88 = UNCERTAINTY_MEASURE_WITH_UNIT (LENGTH_MEASURE( 1.000000000000000100E-005 ), #111, 'distance_accuracy_value', 'NONE');
#89 = PRODUCT ( '110-1211E UVFS pl-cx 25.4 F100', '110-1211E UVFS pl-cx 25.4 F100', '', ( #128 ) ) ;
#90 = LOCAL_TIME ( 17, 1, 37.00000000000000000, #199 ) ;
#91 = PLANE ( 'NONE',  #156 ) ;
#92 = DATE_TIME_ROLE ( 'creation_date' ) ;
#93 = APPROVAL ( #129, 'UNSPECIFIED' ) ;
#94 = LOCAL_TIME ( 17, 1, 37.00000000000000000, #171 ) ;
#95 = PERSON_AND_ORGANIZATION_ROLE ( 'design_owner' ) ;
#96 = MANIFOLD_SOLID_BREP ( 'Imported1', #165 ) ;
#97 = CARTESIAN_POINT ( 'NONE',  ( -8.717819056252288600, 4.391497936215772700, -0.01083347143405371000 ) ) ;
#98 = VERTEX_POINT ( 'NONE', #118 ) ;
#99 =( GEOMETRIC_REPRESENTATION_CONTEXT ( 3 ) GLOBAL_UNCERTAINTY_ASSIGNED_CONTEXT ( ( #88 ) ) GLOBAL_UNIT_ASSIGNED_CONTEXT ( ( #111, #11, #115 ) ) REPRESENTATION_CONTEXT ( 'NONE', 'WORKASPACE' ) );
#100 = CARTESIAN_POINT ( 'NONE',  ( 4.996003610813200500E-016, 2.442490654175340100E-015, 1.725121227140630200 ) ) ;
#101 = DIRECTION ( 'NONE',  ( 1.000000000000000000, 0.0000000000000000000, 0.0000000000000000000 ) ) ;
#102 = CYLINDRICAL_SURFACE ( 'NONE', #19, 12.69999999999999900 ) ;
#103 = ORIENTED_EDGE ( 'NONE', *, *, #30, .T. ) ;
#104 = APPROVAL_DATE_TIME ( #217, #198 ) ;
#105 = VERTEX_POINT ( 'NONE', #139 ) ;
#106 = EDGE_LOOP ( 'NONE', ( #47, #33, #113, #84, #137 ) ) ;
#107 = PERSON ( 'UNSPECIFIED', 'UNSPECIFIED', 'UNSPECIFIED', ('UNSPECIFIED'), ('UNSPECIFIED'), ('UNSPECIFIED') ) ;
#108 = CARTESIAN_POINT ( 'NONE',  ( 12.93632156634189900, -4.391497936215756700, 1.164123469315826200 ) ) ;
#109 = PERSON_AND_ORGANIZATION ( #107, #141 ) ;
#110 = ORIENTED_EDGE ( 'NONE', *, *, #138, .F. ) ;
#111 =( LENGTH_UNIT ( ) NAMED_UNIT ( * ) SI_UNIT ( .MILLI., .METRE. ) );
#112 = CC_DESIGN_PERSON_AND_ORGANIZATION_ASSIGNMENT ( #8, #95, ( #89 ) ) ;
#113 = ORIENTED_EDGE ( 'NONE', *, *, #13, .T. ) ;
#114 = PRODUCT_DEFINITION ( 'UNKNOWN', '', #231, #55 ) ;
#115 =( NAMED_UNIT ( * ) SI_UNIT ( $, .STERADIAN. ) SOLID_ANGLE_UNIT ( ) );
#116 = APPROVAL_PERSON_ORGANIZATION ( #42, #93, #12 ) ;
#117 = CIRCLE ( 'NONE', #25, 12.69999999999999900 ) ;
#118 = CARTESIAN_POINT ( 'NONE',  ( -7.046798839665349700E-015, -12.69999999999997100, 1.725121227140629500 ) ) ;
#119 = EDGE_CURVE ( 'NONE', #127, #229, #79, .T. ) ;
#120 = DIRECTION ( 'NONE',  ( 1.000000000000000000, 8.881784197001252300E-016, 0.0000000000000000000 ) ) ;
#121 = APPROVAL_PERSON_ORGANIZATION ( #109, #198, #180 ) ;
#122 = CARTESIAN_POINT ( 'NONE',  ( -7.046798839665349700E-015, 12.69999999999998300, 1.725121227140629500 ) ) ;
#123 = CARTESIAN_POINT ( 'NONE',  ( -7.034032394564638700E-015, 12.84861107305674100, 1.766513074447279000 ) ) ;
#124 = VECTOR ( 'NONE', #39, 1000.000000000000000 ) ;
#125 = CARTESIAN_POINT ( 'NONE',  ( 8.289233612811871800, 12.84861107305674100, 2.330302069308624300 ) ) ;
#126 = CALENDAR_DATE ( 2018, 13, 12 ) ;
#127 = VERTEX_POINT ( 'NONE', #187 ) ;
#128 = MECHANICAL_CONTEXT ( 'NONE', #167, 'mechanical' ) ;
#129 = APPROVAL_STATUS ( 'not_yet_approved' ) ;
#130 = CIRCLE ( 'NONE', #34, 12.69999999999999900 ) ;
#131 =( BOUNDED_SURFACE ( )  B_SPLINE_SURFACE ( 3, 3, ( 
 ( #216, #78, #85, #26 ),
 ( #205, #164, #46, #108 ),
 ( #148, #178, #220, #191 ),
 ( #123, #86, #125, #69 ) ),
 .UNSPECIFIED., .F., .F., .T. ) 
 B_SPLINE_SURFACE_WITH_KNOTS ( ( 4, 4 ),
 ( 4, 4 ),
 ( 0.0000000000000000000, 1.000000000000000000 ),
 ( 0.0000000000000000000, 1.000000000000000000 ),
 .UNSPECIFIED. ) 
 GEOMETRIC_REPRESENTATION_ITEM ( )  RATIONAL_B_SPLINE_SURFACE ( (
 ( 1.000000000000000000, 0.9938604186506889700, 0.9938604186506889700, 1.000000000000000000),
 ( 0.9752641171399947200, 0.9692764037557497500, 0.9692764037557497500, 0.9752641171399947200),
 ( 0.9752641171399947200, 0.9692764037557497500, 0.9692764037557497500, 0.9752641171399947200),
 ( 1.000000000000000000, 0.9938604186506889700, 0.9938604186506889700, 1.000000000000000000) ) ) 
 REPRESENTATION_ITEM ( '' )  SURFACE ( )  );
#132 = EDGE_CURVE ( 'NONE', #9, #105, #21, .T. ) ;
#133 = CALENDAR_DATE ( 2018, 13, 12 ) ;
#134 = EDGE_LOOP ( 'NONE', ( #110, #28 ) ) ;
#135 = DIRECTION ( 'NONE',  ( 0.0000000000000000000, 0.0000000000000000000, 1.000000000000000000 ) ) ;
#136 = DIRECTION ( 'NONE',  ( 1.000000000000000000, 0.0000000000000000000, 0.0000000000000000000 ) ) ;
#137 = ORIENTED_EDGE ( 'NONE', *, *, #7, .F. ) ;
#138 = EDGE_CURVE ( 'NONE', #229, #105, #68, .T. ) ;
#139 = CARTESIAN_POINT ( 'NONE',  ( -12.69999999999999900, 3.997792089092478900E-015, 4.000000000000000000 ) ) ;
#140 = CARTESIAN_POINT ( 'NONE',  ( 4.996003610813200500E-016, 2.442490654175340100E-015, 1.725121227140630200 ) ) ;
#141 = ORGANIZATION ( 'UNSPECIFIED', 'UNSPECIFIED', '' ) ;
#142 = CARTESIAN_POINT ( 'NONE',  ( -12.69999999999999900, 3.997792089092478900E-015, 1.725121227140630200 ) ) ;
#143 = EDGE_CURVE ( 'NONE', #127, #98, #174, .T. ) ;
#144 = ORIENTED_EDGE ( 'NONE', *, *, #138, .T. ) ;
#145 = SECURITY_CLASSIFICATION ( '', '', #18 ) ;
#146 = CC_DESIGN_APPROVAL ( #93, ( #231 ) ) ;
#147 = ORIENTED_EDGE ( 'NONE', *, *, #143, .F. ) ;
#148 = CARTESIAN_POINT ( 'NONE',  ( -7.765097160132748300E-015, 4.391497936215772700, -0.6037725382629782800 ) ) ;
#149 = COORDINATED_UNIVERSAL_TIME_OFFSET ( 2, 0, .AHEAD. ) ;
#150 = VERTEX_POINT ( 'NONE', #122 ) ;
#151 = CARTESIAN_POINT ( 'NONE',  ( 0.0000000000000000000, 26.11199999999999800, 4.000000000000000000 ) ) ;
#152 = PERSON_AND_ORGANIZATION_ROLE ( 'creator' ) ;
#153 = FACE_OUTER_BOUND ( 'NONE', #134, .T. ) ;
#154 = ORIENTED_EDGE ( 'NONE', *, *, #143, .T. ) ;
#155 = CARTESIAN_POINT ( 'NONE',  ( -1.908195823574487800E-014, -4.391497936215756700, -0.6037725382629737200 ) ) ;
#156 = AXIS2_PLACEMENT_3D ( 'NONE', #151, #17, #172 ) ;
#157 = CARTESIAN_POINT ( 'NONE',  ( -12.93632156634190800, 4.391497936215772700, 1.164123469315837100 ) ) ;
#158 = ORIENTED_EDGE ( 'NONE', *, *, #132, .F. ) ;
#159 = APPROVAL ( #71, 'UNSPECIFIED' ) ;
#160 = ADVANCED_FACE ( 'NONE', ( #209 ), #27, .T. ) ;
#161 = DIRECTION ( 'NONE',  ( -0.0000000000000000000, -0.0000000000000000000, -1.000000000000000000 ) ) ;
#162 = CC_DESIGN_PERSON_AND_ORGANIZATION_ASSIGNMENT ( #63, #152, ( #231 ) ) ;
#163 = CALENDAR_DATE ( 2018, 13, 12 ) ;
#164 = CARTESIAN_POINT ( 'NONE',  ( 4.379073787942916200, -4.391497936215757600, -0.6037725382629803800 ) ) ;
#165 = CLOSED_SHELL ( 'NONE', ( #173, #235, #232, #160, #230 ) ) ;
#166 = APPLICATION_CONTEXT ( 'configuration controlled 3d designs of mechanical parts and assemblies' ) ;
#167 = APPLICATION_CONTEXT ( 'configuration controlled 3d designs of mechanical parts and assemblies' ) ;
#168 = CARTESIAN_POINT ( 'NONE',  ( -8.289233612811887800, -12.84861107305672500, 2.330302069308633600 ) ) ;
#169 = COORDINATED_UNIVERSAL_TIME_OFFSET ( 2, 0, .AHEAD. ) ;
#170 = AXIS2_PLACEMENT_3D ( 'NONE', #43, #22, #82 ) ;
#171 = COORDINATED_UNIVERSAL_TIME_OFFSET ( 2, 0, .AHEAD. ) ;
#172 = DIRECTION ( 'NONE',  ( 1.000000000000000000, 0.0000000000000000000, -0.0000000000000000000 ) ) ;
#173 = ADVANCED_FACE ( 'NONE', ( #200 ), #131, .T. ) ;
#174 = CIRCLE ( 'NONE', #75, 12.69999999999999900 ) ;
#175 = DIRECTION ( 'NONE',  ( 1.000000000000000000, -8.881784197001252300E-016, 0.0000000000000000000 ) ) ;
#176 = APPROVAL_DATE_TIME ( #67, #93 ) ;
#177 = ORIENTED_EDGE ( 'NONE', *, *, #119, .T. ) ;
#178 = CARTESIAN_POINT ( 'NONE',  ( 4.379073787942916200, 4.391497936215772700, -0.6037725382629795000 ) ) ;
#179 = LOCAL_TIME ( 17, 1, 37.00000000000000000, #149 ) ;
#180 = APPROVAL_ROLE ( '' ) ;
#181 = CARTESIAN_POINT ( 'NONE',  ( -1.908195823574487800E-014, 4.391497936215772700, -0.6037725382629728400 ) ) ;
#182 = DATE_TIME_ROLE ( 'classification_date' ) ;
#183 = AXIS2_PLACEMENT_3D ( 'NONE', #45, #65, #188 ) ;
#184 = CARTESIAN_POINT ( 'NONE',  ( -4.379073787942937600, -4.391497936215757600, -0.6037725382629712800 ) ) ;
#185 = DIRECTION ( 'NONE',  ( 1.000000000000000000, 0.0000000000000000000, 0.0000000000000000000 ) ) ;
#186 = ADVANCED_BREP_SHAPE_REPRESENTATION ( '110-1211E UVFS pl-cx 25.4 F100', ( #96, #190 ), #99 ) ;
#187 = CARTESIAN_POINT ( 'NONE',  ( 12.69999999999999900, 2.442490654175340100E-015, 1.725121227140630200 ) ) ;
#188 = DIRECTION ( 'NONE',  ( 0.0000000000000000000, -1.000000000000000000, 0.0000000000000000000 ) ) ;
#189 = SHAPE_DEFINITION_REPRESENTATION ( #44, #186 ) ;
#190 = AXIS2_PLACEMENT_3D ( 'NONE', #59, #225, #56 ) ;
#191 = CARTESIAN_POINT ( 'NONE',  ( 12.93632156634189900, 4.391497936215772700, 1.164123469315827100 ) ) ;
#192 = APPROVAL_DATE_TIME ( #74, #159 ) ;
#193 = DIRECTION ( 'NONE',  ( 1.000000000000000000, 0.0000000000000000000, 0.0000000000000000000 ) ) ;
#194 = AXIS2_PLACEMENT_3D ( 'NONE', #140, #80, #136 ) ;
#195 = APPROVAL_ROLE ( '' ) ;
#196 = CARTESIAN_POINT ( 'NONE',  ( -8.289233612811887800, 12.84861107305674100, 2.330302069308633600 ) ) ;
#197 = DIRECTION ( 'NONE',  ( -0.0000000000000000000, -0.0000000000000000000, -1.000000000000000000 ) ) ;
#198 = APPROVAL ( #48, 'UNSPECIFIED' ) ;
#199 = COORDINATED_UNIVERSAL_TIME_OFFSET ( 2, 0, .AHEAD. ) ;
#200 = FACE_OUTER_BOUND ( 'NONE', #212, .T. ) ;
#201 = CARTESIAN_POINT ( 'NONE',  ( 4.996003610813200500E-016, 2.442490654175340100E-015, 1.725121227140630200 ) ) ;
#202 = CARTESIAN_POINT ( 'NONE',  ( 4.996003610813200500E-016, 2.442490654175340100E-015, 1.725121227140630200 ) ) ;
#203 = LOCAL_TIME ( 17, 1, 37.00000000000000000, #169 ) ;
#204 = ORIENTED_EDGE ( 'NONE', *, *, #40, .T. ) ;
#205 = CARTESIAN_POINT ( 'NONE',  ( -7.765097160132748300E-015, -4.391497936215756700, -0.6037725382629791600 ) ) ;
#206 = CC_DESIGN_APPROVAL ( #198, ( #114 ) ) ;
#207 = EDGE_CURVE ( 'NONE', #98, #150, #224, .T. ) ;
#208 = PERSON_AND_ORGANIZATION_ROLE ( 'creator' ) ;
#209 = FACE_OUTER_BOUND ( 'NONE', #87, .T. ) ;
#210 = CC_DESIGN_PERSON_AND_ORGANIZATION_ASSIGNMENT ( #2, #208, ( #114 ) ) ;
#211 = DATE_AND_TIME ( #5, #94 ) ;
#212 = EDGE_LOOP ( 'NONE', ( #154, #50, #54 ) ) ;
#213 = PERSON_AND_ORGANIZATION_ROLE ( 'design_supplier' ) ;
#214 = CARTESIAN_POINT ( 'NONE',  ( -1.734723475976807100E-014, -12.84861107305672500, 1.766513074447283900 ) ) ;
#215 = DIRECTION ( 'NONE',  ( -0.0000000000000000000, -0.0000000000000000000, -1.000000000000000000 ) ) ;
#216 = CARTESIAN_POINT ( 'NONE',  ( -7.034032394564638700E-015, -12.84861107305672500, 1.766513074447279000 ) ) ;
#217 = DATE_AND_TIME ( #57, #203 ) ;
#218 = AXIS2_PLACEMENT_3D ( 'NONE', #23, #234, #175 ) ;
#219 = DIRECTION ( 'NONE',  ( 0.0000000000000000000, 0.0000000000000000000, 1.000000000000000000 ) ) ;
#220 = CARTESIAN_POINT ( 'NONE',  ( 8.717819056252272600, 4.391497936215772700, -0.01083347143406303300 ) ) ;
#221 = ORIENTED_EDGE ( 'NONE', *, *, #207, .F. ) ;
#222 = PERSON_AND_ORGANIZATION ( #107, #141 ) ;
#223 = CARTESIAN_POINT ( 'NONE',  ( -4.163789750828429200, 12.84861107305674100, 1.766513074447285900 ) ) ;
#224 = CIRCLE ( 'NONE', #183, 47.60999999999999200 ) ;
#225 = DIRECTION ( 'NONE',  ( 0.0000000000000000000, 0.0000000000000000000, 1.000000000000000000 ) ) ;
#226 = CARTESIAN_POINT ( 'NONE',  ( -12.93632156634190800, -4.391497936215756700, 1.164123469315836200 ) ) ;
#227 = CARTESIAN_POINT ( 'NONE',  ( -4.163789750828429200, -12.84861107305672500, 1.766513074447285900 ) ) ;
#228 = COORDINATED_UNIVERSAL_TIME_OFFSET ( 2, 0, .AHEAD. ) ;
#229 = VERTEX_POINT ( 'NONE', #6 ) ;
#230 = ADVANCED_FACE ( 'NONE', ( #153 ), #91, .T. ) ;
#231 = PRODUCT_DEFINITION_FORMATION_WITH_SPECIFIED_SOURCE ( 'ANY', '', #89, .NOT_KNOWN. ) ;
#232 = ADVANCED_FACE ( 'NONE', ( #233 ), #16, .T. ) ;
#233 = FACE_OUTER_BOUND ( 'NONE', #4, .T. ) ;
#234 = DIRECTION ( 'NONE',  ( -0.0000000000000000000, -0.0000000000000000000, -1.000000000000000000 ) ) ;
#235 = ADVANCED_FACE ( 'NONE', ( #32 ), #102, .T. ) ;
ENDSEC;
END-ISO-10303-21;
