ISO-10303-21;
HEADER;
FILE_DESCRIPTION (( 'STEP AP203' ),
    '1' );
FILE_NAME ('110-1210E UVFS pl-cx 25.4 F80.STEP',
    '2018-12-13T15:01:48',
    ( '' ),
    ( '' ),
    'SwSTEP 2.0',
    'SolidWorks 2017',
    '' );
FILE_SCHEMA (( 'CONFIG_CONTROL_DESIGN' ));
ENDSEC;

DATA;
#1 = DATE_AND_TIME ( #185, #121 ) ;
#2 = CARTESIAN_POINT ( 'NONE',  ( -12.69999999999999900, 3.997792089092478900E-015, 4.599999999999999600 ) ) ;
#3 = MANIFOLD_SOLID_BREP ( 'Imported1', #115 ) ;
#4 = LINE ( 'NONE', #193, #8 ) ;
#5 = CARTESIAN_POINT ( 'NONE',  ( -3.737751226591723500E-015, 12.84637815675560700, 2.231686204540617200 ) ) ;
#6 = EDGE_LOOP ( 'NONE', ( #202, #40, #148, #104, #134 ) ) ;
#7 = DIRECTION ( 'NONE',  ( 0.0000000000000000000, 0.0000000000000000000, 1.000000000000000000 ) ) ;
#8 = VECTOR ( 'NONE', #53, 1000.000000000000000 ) ;
#9 = CARTESIAN_POINT ( 'NONE',  ( 4.996003610813200500E-016, 2.442490654175340100E-015, 2.179582291485390000 ) ) ;
#10 = VERTEX_POINT ( 'NONE', #109 ) ;
#11 = APPLICATION_CONTEXT ( 'configuration controlled 3d designs of mechanical parts and assemblies' ) ;
#12 = EDGE_CURVE ( 'NONE', #167, #10, #14, .T. ) ;
#13 = APPROVAL_DATE_TIME ( #59, #162 ) ;
#14 = CIRCLE ( 'NONE', #130, 12.69999999999999900 ) ;
#15 = DIRECTION ( 'NONE',  ( 1.000000000000000000, 0.0000000000000000000, 0.0000000000000000000 ) ) ;
#16 = DIRECTION ( 'NONE',  ( 0.0000000000000000000, 0.0000000000000000000, 1.000000000000000000 ) ) ;
#17 = AXIS2_PLACEMENT_3D ( 'NONE', #9, #188, #138 ) ;
#18 = EDGE_CURVE ( 'NONE', #108, #152, #61, .T. ) ;
#19 = UNCERTAINTY_MEASURE_WITH_UNIT (LENGTH_MEASURE( 1.000000000000000100E-005 ), #84, 'distance_accuracy_value', 'NONE');
#20 = DIRECTION ( 'NONE',  ( 0.0000000000000000000, 0.0000000000000000000, 1.000000000000000000 ) ) ;
#21 = PERSON ( 'UNSPECIFIED', 'UNSPECIFIED', 'UNSPECIFIED', ('UNSPECIFIED'), ('UNSPECIFIED'), ('UNSPECIFIED') ) ;
#22 =( BOUNDED_SURFACE ( )  B_SPLINE_SURFACE ( 3, 3, ( 
 ( #204, #174, #225, #46 ),
 ( #201, #176, #170, #50 ),
 ( #43, #171, #64, #28 ),
 ( #230, #78, #206, #101 ) ),
 .UNSPECIFIED., .F., .F., .F. ) 
 B_SPLINE_SURFACE_WITH_KNOTS ( ( 4, 4 ),
 ( 4, 4 ),
 ( 0.0000000000000000000, 1.000000000000000000 ),
 ( 0.0000000000000000000, 1.000000000000000000 ),
 .UNSPECIFIED. ) 
 GEOMETRIC_REPRESENTATION_ITEM ( )  RATIONAL_B_SPLINE_SURFACE ( (
 ( 1.000000000000000000, 0.9902784686099820300, 0.9902784686099820300, 1.000000000000000000),
 ( 0.9609401206871336400, 0.9515983111399459700, 0.9515983111399459700, 0.9609401206871336400),
 ( 0.9609401206871336400, 0.9515983111399459700, 0.9515983111399459700, 0.9609401206871336400),
 ( 1.000000000000000000, 0.9902784686099820300, 0.9902784686099820300, 1.000000000000000000) ) ) 
 REPRESENTATION_ITEM ( '' )  SURFACE ( )  );
#23 = PERSON_AND_ORGANIZATION_ROLE ( 'design_owner' ) ;
#24 = FACE_OUTER_BOUND ( 'NONE', #198, .T. ) ;
#25 = FACE_OUTER_BOUND ( 'NONE', #75, .T. ) ;
#26 = MECHANICAL_CONTEXT ( 'NONE', #11, 'mechanical' ) ;
#27 = AXIS2_PLACEMENT_3D ( 'NONE', #235, #106, #216 ) ;
#28 = CARTESIAN_POINT ( 'NONE',  ( -8.673617379884033900E-015, 4.456184063987116400, -0.7741329407514018200 ) ) ;
#29 = DATE_AND_TIME ( #125, #173 ) ;
#30 = VERTEX_POINT ( 'NONE', #147 ) ;
#31 = FACE_OUTER_BOUND ( 'NONE', #140, .T. ) ;
#32 = APPLICATION_CONTEXT ( 'configuration controlled 3d designs of mechanical parts and assemblies' ) ;
#33 = LOCAL_TIME ( 17, 1, 48.00000000000000000, #187 ) ;
#34 = ORIENTED_EDGE ( 'NONE', *, *, #135, .T. ) ;
#35 = CARTESIAN_POINT ( 'NONE',  ( -1.065814103640150000E-014, -7.105427357601000300E-015, 38.09000000000000300 ) ) ;
#36 = CC_DESIGN_PERSON_AND_ORGANIZATION_ASSIGNMENT ( #207, #157, ( #199 ) ) ;
#37 = CYLINDRICAL_SURFACE ( 'NONE', #186, 12.69999999999999900 ) ;
#38 = CARTESIAN_POINT ( 'NONE',  ( 4.107524701673904500, -12.84637815675561300, 2.231686204540625600 ) ) ;
#39 = ADVANCED_FACE ( 'NONE', ( #25 ), #179, .T. ) ;
#40 = ORIENTED_EDGE ( 'NONE', *, *, #100, .T. ) ;
#41 = COORDINATED_UNIVERSAL_TIME_OFFSET ( 2, 0, .AHEAD. ) ;
#42 = APPROVAL ( #83, 'UNSPECIFIED' ) ;
#43 = CARTESIAN_POINT ( 'NONE',  ( -13.03281572441019700, 4.456184063987111100, 1.476251987402807500 ) ) ;
#44 = APPROVAL_STATUS ( 'not_yet_approved' ) ;
#45 = CC_DESIGN_PERSON_AND_ORGANIZATION_ASSIGNMENT ( #57, #49, ( #199 ) ) ;
#46 = CARTESIAN_POINT ( 'NONE',  ( -5.204170427930421300E-015, -12.84637815675561300, 2.231686204540630000 ) ) ;
#47 = AXIS2_PLACEMENT_3D ( 'NONE', #210, #232, #211 ) ;
#48 = COORDINATED_UNIVERSAL_TIME_OFFSET ( 2, 0, .AHEAD. ) ;
#49 = PERSON_AND_ORGANIZATION_ROLE ( 'design_supplier' ) ;
#50 = CARTESIAN_POINT ( 'NONE',  ( -8.673617379884033900E-015, -4.456184063987132400, -0.7741329407513940500 ) ) ;
#51 = CALENDAR_DATE ( 2018, 13, 12 ) ;
#52 = CYLINDRICAL_SURFACE ( 'NONE', #91, 12.69999999999999900 ) ;
#53 = DIRECTION ( 'NONE',  ( 0.0000000000000000000, 0.0000000000000000000, 1.000000000000000000 ) ) ;
#54 = ORIENTED_EDGE ( 'NONE', *, *, #12, .T. ) ;
#55 = CARTESIAN_POINT ( 'NONE',  ( 3.853106259727101400E-015, -4.456184063987130600, -0.7741329407514018200 ) ) ;
#56 = CC_DESIGN_DATE_AND_TIME_ASSIGNMENT ( #29, #86, ( #153 ) ) ;
#57 = PERSON_AND_ORGANIZATION ( #21, #90 ) ;
#58 = CARTESIAN_POINT ( 'NONE',  ( 12.02483525354220700, 12.84637815675561100, 4.308022476787998700 ) ) ;
#59 = DATE_AND_TIME ( #112, #200 ) ;
#60 =( NAMED_UNIT ( * ) SI_UNIT ( $, .STERADIAN. ) SOLID_ANGLE_UNIT ( ) );
#61 = CIRCLE ( 'NONE', #27, 12.69999999999999900 ) ;
#62 = CARTESIAN_POINT ( 'NONE',  ( 4.996003610813200500E-016, 2.442490654175340100E-015, 2.179582291485390000 ) ) ;
#63 = EDGE_CURVE ( 'NONE', #152, #108, #165, .T. ) ;
#64 = CARTESIAN_POINT ( 'NONE',  ( -4.451837500610216700, 4.456184063987116400, -0.7741329407514024900 ) ) ;
#65 = ORIENTED_EDGE ( 'NONE', *, *, #92, .T. ) ;
#66 = CARTESIAN_POINT ( 'NONE',  ( 4.996003610813200500E-016, 2.442490654175340100E-015, 4.599999999999999600 ) ) ;
#67 = PERSON_AND_ORGANIZATION_ROLE ( 'classification_officer' ) ;
#68 = DATE_AND_TIME ( #51, #103 ) ;
#69 = DIRECTION ( 'NONE',  ( 0.0000000000000000000, 0.0000000000000000000, 1.000000000000000000 ) ) ;
#70 = CARTESIAN_POINT ( 'NONE',  ( 8.155152257863905500, 12.84637815675561100, 2.930592737084559500 ) ) ;
#71 = COORDINATED_UNIVERSAL_TIME_OFFSET ( 2, 0, .AHEAD. ) ;
#72 = CARTESIAN_POINT ( 'NONE',  ( 4.451837500610222000, -4.456184063987129700, -0.7741329407514006000 ) ) ;
#73 = VERTEX_POINT ( 'NONE', #85 ) ;
#74 = DATE_AND_TIME ( #175, #33 ) ;
#75 = EDGE_LOOP ( 'NONE', ( #184, #150 ) ) ;
#76 = EDGE_CURVE ( 'NONE', #167, #152, #4, .T. ) ;
#77 = CIRCLE ( 'NONE', #146, 12.69999999999999900 ) ;
#78 = CARTESIAN_POINT ( 'NONE',  ( -8.155152257863910800, 12.84637815675559700, 2.930592737084560800 ) ) ;
#79 = CARTESIAN_POINT ( 'NONE',  ( 4.996003610813200500E-016, 2.442490654175340100E-015, 2.179582291485390000 ) ) ;
#80 = AXIS2_PLACEMENT_3D ( 'NONE', #66, #181, #105 ) ;
#81 = EDGE_LOOP ( 'NONE', ( #94, #213, #156, #160, #194 ) ) ;
#82 = APPROVAL_ROLE ( '' ) ;
#83 = APPROVAL_STATUS ( 'not_yet_approved' ) ;
#84 =( LENGTH_UNIT ( ) NAMED_UNIT ( * ) SI_UNIT ( .MILLI., .METRE. ) );
#85 = CARTESIAN_POINT ( 'NONE',  ( -12.69999999999999900, 3.997792089092478900E-015, 2.179582291485390000 ) ) ;
#86 = DATE_TIME_ROLE ( 'classification_date' ) ;
#87 = DIRECTION ( 'NONE',  ( 1.000000000000000000, 3.814462587008669800E-016, 3.296471987775830200E-016 ) ) ;
#88 = ADVANCED_FACE ( 'NONE', ( #208 ), #52, .T. ) ;
#89 = CC_DESIGN_APPROVAL ( #42, ( #199 ) ) ;
#90 = ORGANIZATION ( 'UNSPECIFIED', 'UNSPECIFIED', '' ) ;
#91 = AXIS2_PLACEMENT_3D ( 'NONE', #234, #69, #178 ) ;
#92 = EDGE_CURVE ( 'NONE', #10, #30, #137, .T. ) ;
#93 = CARTESIAN_POINT ( 'NONE',  ( 4.451837500610220200, 4.456184063987124400, -0.7741329407514088200 ) ) ;
#94 = ORIENTED_EDGE ( 'NONE', *, *, #100, .F. ) ;
#95 = APPLICATION_PROTOCOL_DEFINITION ( 'international standard', 'config_control_design', 1994, #11 ) ;
#96 = APPROVAL_DATE_TIME ( #74, #215 ) ;
#97 = ORIENTED_EDGE ( 'NONE', *, *, #219, .T. ) ;
#98 = PERSON_AND_ORGANIZATION_ROLE ( 'creator' ) ;
#99 =( BOUNDED_SURFACE ( )  B_SPLINE_SURFACE ( 3, 3, ( 
 ( #151, #38, #164, #168 ),
 ( #55, #72, #195, #182 ),
 ( #217, #93, #221, #116 ),
 ( #5, #136, #70, #58 ) ),
 .UNSPECIFIED., .F., .F., .T. ) 
 B_SPLINE_SURFACE_WITH_KNOTS ( ( 4, 4 ),
 ( 4, 4 ),
 ( 0.0000000000000000000, 1.000000000000000000 ),
 ( 0.0000000000000000000, 1.000000000000000000 ),
 .UNSPECIFIED. ) 
 GEOMETRIC_REPRESENTATION_ITEM ( )  RATIONAL_B_SPLINE_SURFACE ( (
 ( 1.000000000000000000, 0.9902784686099819200, 0.9902784686099819200, 1.000000000000000000),
 ( 0.9609401206871336400, 0.9515983111399458600, 0.9515983111399458600, 0.9609401206871336400),
 ( 0.9609401206871336400, 0.9515983111399458600, 0.9515983111399458600, 0.9609401206871336400),
 ( 1.000000000000000000, 0.9902784686099819200, 0.9902784686099819200, 1.000000000000000000) ) ) 
 REPRESENTATION_ITEM ( '' )  SURFACE ( )  );
#100 = EDGE_CURVE ( 'NONE', #73, #108, #144, .T. ) ;
#101 = CARTESIAN_POINT ( 'NONE',  ( -1.387778780781445700E-014, 12.84637815675560000, 2.231686204540622500 ) ) ;
#102 = SECURITY_CLASSIFICATION_LEVEL ( 'unclassified' ) ;
#103 = LOCAL_TIME ( 17, 1, 48.00000000000000000, #41 ) ;
#104 = ORIENTED_EDGE ( 'NONE', *, *, #76, .F. ) ;
#105 = DIRECTION ( 'NONE',  ( 1.000000000000000000, 0.0000000000000000000, 0.0000000000000000000 ) ) ;
#106 = DIRECTION ( 'NONE',  ( -0.0000000000000000000, -0.0000000000000000000, -1.000000000000000000 ) ) ;
#107 = APPROVAL_STATUS ( 'not_yet_approved' ) ;
#108 = VERTEX_POINT ( 'NONE', #2 ) ;
#109 = CARTESIAN_POINT ( 'NONE',  ( 6.023995053644264600E-015, -12.70000000000000800, 2.179582291485394000 ) ) ;
#110 = CARTESIAN_POINT ( 'NONE',  ( 12.69999999999999900, 2.442490654175340100E-015, 2.179582291485390000 ) ) ;
#111 = PRODUCT ( '110-1210E UVFS pl-cx 25.4 F80', '110-1210E UVFS pl-cx 25.4 F80', '', ( #26 ) ) ;
#112 = CALENDAR_DATE ( 2018, 13, 12 ) ;
#113 = ORIENTED_EDGE ( 'NONE', *, *, #92, .F. ) ;
#114 = CC_DESIGN_APPROVAL ( #215, ( #192 ) ) ;
#115 = CLOSED_SHELL ( 'NONE', ( #132, #88, #214, #196, #39 ) ) ;
#116 = CARTESIAN_POINT ( 'NONE',  ( 13.03281572441020800, 4.456184063987123500, 1.476251987402812400 ) ) ;
#117 = DIRECTION ( 'NONE',  ( 1.000000000000000000, 0.0000000000000000000, 0.0000000000000000000 ) ) ;
#118 = APPROVAL_PERSON_ORGANIZATION ( #169, #215, #82 ) ;
#119 = CARTESIAN_POINT ( 'NONE',  ( 0.0000000000000000000, 0.0000000000000000000, 0.0000000000000000000 ) ) ;
#120 = DIRECTION ( 'NONE',  ( 1.000000000000000000, 0.0000000000000000000, 0.0000000000000000000 ) ) ;
#121 = LOCAL_TIME ( 17, 1, 48.00000000000000000, #231 ) ;
#122 = CC_DESIGN_PERSON_AND_ORGANIZATION_ASSIGNMENT ( #227, #98, ( #192 ) ) ;
#123 = CARTESIAN_POINT ( 'NONE',  ( 4.996003610813200500E-016, 2.442490654175340100E-015, 2.179582291485390000 ) ) ;
#124 = APPROVAL_ROLE ( '' ) ;
#125 = CALENDAR_DATE ( 2018, 13, 12 ) ;
#126 = CARTESIAN_POINT ( 'NONE',  ( -12.69999999999999900, 3.997792089092478900E-015, 2.179582291485390000 ) ) ;
#127 = CC_DESIGN_SECURITY_CLASSIFICATION ( #153, ( #199 ) ) ;
#128 = PRODUCT_DEFINITION_SHAPE ( 'NONE', 'NONE',  #192 ) ;
#129 = APPROVAL_DATE_TIME ( #1, #42 ) ;
#130 = AXIS2_PLACEMENT_3D ( 'NONE', #161, #177, #15 ) ;
#131 = DIRECTION ( 'NONE',  ( 3.814462587008672300E-016, -1.000000000000000000, -7.286840539676794600E-016 ) ) ;
#132 = ADVANCED_FACE ( 'NONE', ( #24 ), #99, .T. ) ;
#133 = APPROVAL_PERSON_ORGANIZATION ( #159, #42, #143 ) ;
#134 = ORIENTED_EDGE ( 'NONE', *, *, #233, .F. ) ;
#135 = EDGE_CURVE ( 'NONE', #73, #30, #77, .T. ) ;
#136 = CARTESIAN_POINT ( 'NONE',  ( 4.107524701673897400, 12.84637815675560900, 2.231686204540618500 ) ) ;
#137 = CIRCLE ( 'NONE', #163, 38.09000000000000300 ) ;
#138 = DIRECTION ( 'NONE',  ( 1.000000000000000000, 0.0000000000000000000, 0.0000000000000000000 ) ) ;
#139 = FACE_OUTER_BOUND ( 'NONE', #81, .T. ) ;
#140 = EDGE_LOOP ( 'NONE', ( #113, #97, #34 ) ) ;
#141 = CC_DESIGN_PERSON_AND_ORGANIZATION_ASSIGNMENT ( #183, #67, ( #153 ) ) ;
#142 = APPROVAL_PERSON_ORGANIZATION ( #212, #162, #124 ) ;
#143 = APPROVAL_ROLE ( '' ) ;
#144 = LINE ( 'NONE', #126, #218 ) ;
#145 = CARTESIAN_POINT ( 'NONE',  ( 12.69999999999999900, 2.442490654175340100E-015, 4.599999999999999600 ) ) ;
#146 = AXIS2_PLACEMENT_3D ( 'NONE', #79, #209, #158 ) ;
#147 = CARTESIAN_POINT ( 'NONE',  ( -3.664739917357759800E-015, 12.70000000000000300, 2.179582291485386800 ) ) ;
#148 = ORIENTED_EDGE ( 'NONE', *, *, #18, .T. ) ;
#149 = AXIS2_PLACEMENT_3D ( 'NONE', #62, #223, #155 ) ;
#150 = ORIENTED_EDGE ( 'NONE', *, *, #18, .F. ) ;
#151 = CARTESIAN_POINT ( 'NONE',  ( 6.062654544910211000E-015, -12.84637815675561400, 2.231686204540624300 ) ) ;
#152 = VERTEX_POINT ( 'NONE', #145 ) ;
#153 = SECURITY_CLASSIFICATION ( '', '', #102 ) ;
#154 = APPLICATION_PROTOCOL_DEFINITION ( 'international standard', 'config_control_design', 1994, #32 ) ;
#155 = DIRECTION ( 'NONE',  ( 1.000000000000000000, 1.776356839400250500E-015, 0.0000000000000000000 ) ) ;
#156 = ORIENTED_EDGE ( 'NONE', *, *, #12, .F. ) ;
#157 = PERSON_AND_ORGANIZATION_ROLE ( 'creator' ) ;
#158 = DIRECTION ( 'NONE',  ( 1.000000000000000000, -8.881784197001252300E-016, 0.0000000000000000000 ) ) ;
#159 = PERSON_AND_ORGANIZATION ( #21, #90 ) ;
#160 = ORIENTED_EDGE ( 'NONE', *, *, #76, .T. ) ;
#161 = CARTESIAN_POINT ( 'NONE',  ( 4.996003610813200500E-016, 2.442490654175340100E-015, 2.179582291485390000 ) ) ;
#162 = APPROVAL ( #107, 'UNSPECIFIED' ) ;
#163 = AXIS2_PLACEMENT_3D ( 'NONE', #35, #87, #131 ) ;
#164 = CARTESIAN_POINT ( 'NONE',  ( 8.155152257863909100, -12.84637815675561100, 2.930592737084567000 ) ) ;
#165 = CIRCLE ( 'NONE', #80, 12.69999999999999900 ) ;
#166 = PRODUCT_RELATED_PRODUCT_CATEGORY ( 'detail', '', ( #111 ) ) ;
#167 = VERTEX_POINT ( 'NONE', #110 ) ;
#168 = CARTESIAN_POINT ( 'NONE',  ( 12.02483525354220900, -12.84637815675561100, 4.308022476788004900 ) ) ;
#169 = PERSON_AND_ORGANIZATION ( #21, #90 ) ;
#170 = CARTESIAN_POINT ( 'NONE',  ( -4.451837500610216700, -4.456184063987134200, -0.7741329407513941600 ) ) ;
#171 = CARTESIAN_POINT ( 'NONE',  ( -8.838756984212267300, 4.456184063987113800, -0.01664064624795321200 ) ) ;
#172 = AXIS2_PLACEMENT_3D ( 'NONE', #119, #7, #117 ) ;
#173 = LOCAL_TIME ( 17, 1, 48.00000000000000000, #48 ) ;
#174 = CARTESIAN_POINT ( 'NONE',  ( -8.155152257863894900, -12.84637815675562000, 2.930592737084568400 ) ) ;
#175 = CALENDAR_DATE ( 2018, 13, 12 ) ;
#176 = CARTESIAN_POINT ( 'NONE',  ( -8.838756984212263700, -4.456184063987136800, -0.01664064624794540600 ) ) ;
#177 = DIRECTION ( 'NONE',  ( -0.0000000000000000000, -0.0000000000000000000, -1.000000000000000000 ) ) ;
#178 = DIRECTION ( 'NONE',  ( 1.000000000000000000, 0.0000000000000000000, 0.0000000000000000000 ) ) ;
#179 = PLANE ( 'NONE',  #47 ) ;
#180 =( GEOMETRIC_REPRESENTATION_CONTEXT ( 3 ) GLOBAL_UNCERTAINTY_ASSIGNED_CONTEXT ( ( #19 ) ) GLOBAL_UNIT_ASSIGNED_CONTEXT ( ( #84, #224, #60 ) ) REPRESENTATION_CONTEXT ( 'NONE', 'WORKASPACE' ) );
#181 = DIRECTION ( 'NONE',  ( -0.0000000000000000000, -0.0000000000000000000, -1.000000000000000000 ) ) ;
#182 = CARTESIAN_POINT ( 'NONE',  ( 13.03281572441020600, -4.456184063987127100, 1.476251987402819300 ) ) ;
#183 = PERSON_AND_ORGANIZATION ( #21, #90 ) ;
#184 = ORIENTED_EDGE ( 'NONE', *, *, #63, .F. ) ;
#185 = CALENDAR_DATE ( 2018, 13, 12 ) ;
#186 = AXIS2_PLACEMENT_3D ( 'NONE', #123, #20, #120 ) ;
#187 = COORDINATED_UNIVERSAL_TIME_OFFSET ( 2, 0, .AHEAD. ) ;
#188 = DIRECTION ( 'NONE',  ( -0.0000000000000000000, -0.0000000000000000000, -1.000000000000000000 ) ) ;
#189 = ORIENTED_EDGE ( 'NONE', *, *, #233, .T. ) ;
#190 = CC_DESIGN_DATE_AND_TIME_ASSIGNMENT ( #68, #228, ( #192 ) ) ;
#191 = CIRCLE ( 'NONE', #17, 12.69999999999999900 ) ;
#192 = PRODUCT_DEFINITION ( 'UNKNOWN', '', #199, #203 ) ;
#193 = CARTESIAN_POINT ( 'NONE',  ( 12.69999999999999900, 2.442490654175340100E-015, 2.179582291485390000 ) ) ;
#194 = ORIENTED_EDGE ( 'NONE', *, *, #63, .T. ) ;
#195 = CARTESIAN_POINT ( 'NONE',  ( 8.838756984212274400, -4.456184063987128900, -0.01664064624794778900 ) ) ;
#196 = ADVANCED_FACE ( 'NONE', ( #139 ), #37, .T. ) ;
#197 = CC_DESIGN_PERSON_AND_ORGANIZATION_ASSIGNMENT ( #220, #23, ( #111 ) ) ;
#198 = EDGE_LOOP ( 'NONE', ( #54, #65, #189 ) ) ;
#199 = PRODUCT_DEFINITION_FORMATION_WITH_SPECIFIED_SOURCE ( 'ANY', '', #111, .NOT_KNOWN. ) ;
#200 = LOCAL_TIME ( 17, 1, 48.00000000000000000, #71 ) ;
#201 = CARTESIAN_POINT ( 'NONE',  ( -13.03281572441019000, -4.456184063987137700, 1.476251987402815300 ) ) ;
#202 = ORIENTED_EDGE ( 'NONE', *, *, #135, .F. ) ;
#203 = DESIGN_CONTEXT ( 'detailed design', #32, 'design' ) ;
#204 = CARTESIAN_POINT ( 'NONE',  ( -12.02483525354218800, -12.84637815675562000, 4.308022476787999500 ) ) ;
#205 = ADVANCED_BREP_SHAPE_REPRESENTATION ( '110-1210E UVFS pl-cx 25.4 F80', ( #3, #172 ), #180 ) ;
#206 = CARTESIAN_POINT ( 'NONE',  ( -4.107524701673908900, 12.84637815675560000, 2.231686204540622100 ) ) ;
#207 = PERSON_AND_ORGANIZATION ( #21, #90 ) ;
#208 = FACE_OUTER_BOUND ( 'NONE', #6, .T. ) ;
#209 = DIRECTION ( 'NONE',  ( -0.0000000000000000000, -0.0000000000000000000, -1.000000000000000000 ) ) ;
#210 = CARTESIAN_POINT ( 'NONE',  ( 0.0000000000000000000, 26.11199999999999800, 4.599999999999999600 ) ) ;
#211 = DIRECTION ( 'NONE',  ( 1.000000000000000000, 0.0000000000000000000, -0.0000000000000000000 ) ) ;
#212 = PERSON_AND_ORGANIZATION ( #21, #90 ) ;
#213 = ORIENTED_EDGE ( 'NONE', *, *, #219, .F. ) ;
#214 = ADVANCED_FACE ( 'NONE', ( #31 ), #22, .T. ) ;
#215 = APPROVAL ( #44, 'UNSPECIFIED' ) ;
#216 = DIRECTION ( 'NONE',  ( 1.000000000000000000, 0.0000000000000000000, 0.0000000000000000000 ) ) ;
#217 = CARTESIAN_POINT ( 'NONE',  ( 4.535167811464756200E-016, 4.456184063987120000, -0.7741329407514101500 ) ) ;
#218 = VECTOR ( 'NONE', #16, 1000.000000000000000 ) ;
#219 = EDGE_CURVE ( 'NONE', #10, #73, #191, .T. ) ;
#220 = PERSON_AND_ORGANIZATION ( #21, #90 ) ;
#221 = CARTESIAN_POINT ( 'NONE',  ( 8.838756984212276200, 4.456184063987125300, -0.01664064624795581100 ) ) ;
#222 = SHAPE_DEFINITION_REPRESENTATION ( #128, #205 ) ;
#223 = DIRECTION ( 'NONE',  ( -0.0000000000000000000, -0.0000000000000000000, -1.000000000000000000 ) ) ;
#224 =( NAMED_UNIT ( * ) PLANE_ANGLE_UNIT ( ) SI_UNIT ( $, .RADIAN. ) );
#225 = CARTESIAN_POINT ( 'NONE',  ( -4.107524701673897400, -12.84637815675561600, 2.231686204540630000 ) ) ;
#226 = CC_DESIGN_APPROVAL ( #162, ( #153 ) ) ;
#227 = PERSON_AND_ORGANIZATION ( #21, #90 ) ;
#228 = DATE_TIME_ROLE ( 'creation_date' ) ;
#229 = CIRCLE ( 'NONE', #149, 12.69999999999999900 ) ;
#230 = CARTESIAN_POINT ( 'NONE',  ( -12.02483525354220500, 12.84637815675559300, 4.308022476787992400 ) ) ;
#231 = COORDINATED_UNIVERSAL_TIME_OFFSET ( 2, 0, .AHEAD. ) ;
#232 = DIRECTION ( 'NONE',  ( 0.0000000000000000000, 0.0000000000000000000, 1.000000000000000000 ) ) ;
#233 = EDGE_CURVE ( 'NONE', #30, #167, #229, .T. ) ;
#234 = CARTESIAN_POINT ( 'NONE',  ( 4.996003610813200500E-016, 2.442490654175340100E-015, 2.179582291485390000 ) ) ;
#235 = CARTESIAN_POINT ( 'NONE',  ( 4.996003610813200500E-016, 2.442490654175340100E-015, 4.599999999999999600 ) ) ;
ENDSEC;
END-ISO-10303-21;
