ISO-10303-21;
HEADER;
FILE_DESCRIPTION (( 'STEP AP203' ),
    '1' );
FILE_NAME ('110-1209E UVFS pl-cx 25.4 F75.STEP',
    '2018-12-13T15:01:58',
    ( '' ),
    ( '' ),
    'SwSTEP 2.0',
    'SolidWorks 2017',
    '' );
FILE_SCHEMA (( 'CONFIG_CONTROL_DESIGN' ));
ENDSEC;

DATA;
#1 = CARTESIAN_POINT ( 'NONE',  ( -1.725406998700657300E-014, 12.84550262836224900, 2.390378720268461400 ) ) ;
#2 = PRODUCT_RELATED_PRODUCT_CATEGORY ( 'detail', '', ( #194 ) ) ;
#3 = DIRECTION ( 'NONE',  ( -0.0000000000000000000, -0.0000000000000000000, -1.000000000000000000 ) ) ;
#4 = ORIENTED_EDGE ( 'NONE', *, *, #25, .T. ) ;
#5 = CC_DESIGN_PERSON_AND_ORGANIZATION_ASSIGNMENT ( #99, #6, ( #59 ) ) ;
#6 = PERSON_AND_ORGANIZATION_ROLE ( 'creator' ) ;
#7 = PERSON_AND_ORGANIZATION_ROLE ( 'design_owner' ) ;
#8 = VERTEX_POINT ( 'NONE', #157 ) ;
#9 = ADVANCED_FACE ( 'NONE', ( #223 ), #197, .T. ) ;
#10 = CLOSED_SHELL ( 'NONE', ( #123, #120, #9, #118, #192 ) ) ;
#11 = CALENDAR_DATE ( 2018, 13, 12 ) ;
#12 = CARTESIAN_POINT ( 'NONE',  ( -12.69999999999999900, 3.997792089092478900E-015, 2.334648316459650100 ) ) ;
#13 = CARTESIAN_POINT ( 'NONE',  ( 8.886770186256061500, -4.481839702842067100, -0.01908059671972602700 ) ) ;
#14 = PERSON_AND_ORGANIZATION ( #159, #23 ) ;
#15 = UNCERTAINTY_MEASURE_WITH_UNIT (LENGTH_MEASURE( 1.000000000000000100E-005 ), #39, 'distance_accuracy_value', 'NONE');
#16 = DIRECTION ( 'NONE',  ( 1.000000000000000000, 0.0000000000000000000, 0.0000000000000000000 ) ) ;
#17 = CALENDAR_DATE ( 2018, 13, 12 ) ;
#18 = VERTEX_POINT ( 'NONE', #177 ) ;
#19 = APPROVAL_ROLE ( '' ) ;
#20 = DIRECTION ( 'NONE',  ( 0.0000000000000000000, 0.0000000000000000000, 1.000000000000000000 ) ) ;
#21 = AXIS2_PLACEMENT_3D ( 'NONE', #28, #105, #50 ) ;
#22 = SECURITY_CLASSIFICATION ( '', '', #168 ) ;
#23 = ORGANIZATION ( 'UNSPECIFIED', 'UNSPECIFIED', '' ) ;
#24 = ORIENTED_EDGE ( 'NONE', *, *, #25, .F. ) ;
#25 = EDGE_CURVE ( 'NONE', #78, #8, #93, .T. ) ;
#26 = CARTESIAN_POINT ( 'NONE',  ( -2.602085213965210600E-014, -12.84550262836223100, 2.390378720268459200 ) ) ;
#27 = FACE_OUTER_BOUND ( 'NONE', #35, .T. ) ;
#28 = CARTESIAN_POINT ( 'NONE',  ( 4.996003610813200500E-016, 2.442490654175340100E-015, 2.334648316459650100 ) ) ;
#29 = CC_DESIGN_PERSON_AND_ORGANIZATION_ASSIGNMENT ( #212, #7, ( #194 ) ) ;
#30 = PERSON_AND_ORGANIZATION ( #159, #23 ) ;
#31 = CARTESIAN_POINT ( 'NONE',  ( 4.480750301490667600, 4.481839702842083100, -0.8340112927674482300 ) ) ;
#32 = ORIENTED_EDGE ( 'NONE', *, *, #165, .T. ) ;
#33 = CC_DESIGN_APPROVAL ( #187, ( #22 ) ) ;
#34 = PLANE ( 'NONE',  #204 ) ;
#35 = EDGE_LOOP ( 'NONE', ( #43, #199, #182, #156, #24 ) ) ;
#36 = APPROVAL_STATUS ( 'not_yet_approved' ) ;
#37 = CALENDAR_DATE ( 2018, 13, 12 ) ;
#38 = ORIENTED_EDGE ( 'NONE', *, *, #66, .F. ) ;
#39 =( LENGTH_UNIT ( ) NAMED_UNIT ( * ) SI_UNIT ( .MILLI., .METRE. ) );
#40 = AXIS2_PLACEMENT_3D ( 'NONE', #101, #104, #215 ) ;
#41 = FACE_OUTER_BOUND ( 'NONE', #87, .T. ) ;
#42 = PRODUCT_DEFINITION ( 'UNKNOWN', '', #59, #141 ) ;
#43 = ORIENTED_EDGE ( 'NONE', *, *, #52, .F. ) ;
#44 = CYLINDRICAL_SURFACE ( 'NONE', #21, 12.69999999999999900 ) ;
#45 = DIRECTION ( 'NONE',  ( 0.0000000000000000000, 0.0000000000000000000, 1.000000000000000000 ) ) ;
#46 = DIRECTION ( 'NONE',  ( 1.000000000000000000, 0.0000000000000000000, -4.112098451893469900E-016 ) ) ;
#47 = COORDINATED_UNIVERSAL_TIME_OFFSET ( 2, 0, .AHEAD. ) ;
#48 = VERTEX_POINT ( 'NONE', #61 ) ;
#49 = CARTESIAN_POINT ( 'NONE',  ( 12.69999999999999900, 2.442490654175340100E-015, 2.334648316459650100 ) ) ;
#50 = DIRECTION ( 'NONE',  ( 1.000000000000000000, 0.0000000000000000000, 0.0000000000000000000 ) ) ;
#51 = ORIENTED_EDGE ( 'NONE', *, *, #86, .T. ) ;
#52 = EDGE_CURVE ( 'NONE', #18, #78, #190, .T. ) ;
#53 = DATE_AND_TIME ( #17, #121 ) ;
#54 = APPLICATION_PROTOCOL_DEFINITION ( 'international standard', 'config_control_design', 1994, #221 ) ;
#55 = CARTESIAN_POINT ( 'NONE',  ( 4.996003610813200500E-016, 2.442490654175340100E-015, 4.500000000000000900 ) ) ;
#56 = PERSON_AND_ORGANIZATION ( #159, #23 ) ;
#57 = PERSON_AND_ORGANIZATION_ROLE ( 'classification_officer' ) ;
#58 = EDGE_CURVE ( 'NONE', #8, #48, #135, .T. ) ;
#59 = PRODUCT_DEFINITION_FORMATION_WITH_SPECIFIED_SOURCE ( 'ANY', '', #194, .NOT_KNOWN. ) ;
#60 = CARTESIAN_POINT ( 'NONE',  ( -1.725406998700657300E-014, -12.84550262836223100, 2.390378720268461400 ) ) ;
#61 = CARTESIAN_POINT ( 'NONE',  ( 12.69999999999999900, 2.442490654175340100E-015, 4.500000000000000900 ) ) ;
#62 = APPROVAL ( #171, 'UNSPECIFIED' ) ;
#63 = CARTESIAN_POINT ( 'NONE',  ( 13.07109154407636000, 4.481839702842085800, 1.583597798591628500 ) ) ;
#64 = LOCAL_TIME ( 17, 1, 58.00000000000000000, #47 ) ;
#65 = ORIENTED_EDGE ( 'NONE', *, *, #86, .F. ) ;
#66 = EDGE_CURVE ( 'NONE', #48, #164, #184, .T. ) ;
#67 = CARTESIAN_POINT ( 'NONE',  ( 0.0000000000000000000, 26.11199999999999800, 4.500000000000000900 ) ) ;
#68 = COORDINATED_UNIVERSAL_TIME_OFFSET ( 2, 0, .AHEAD. ) ;
#69 = DIRECTION ( 'NONE',  ( 1.000000000000000000, 0.0000000000000000000, 0.0000000000000000000 ) ) ;
#70 = APPROVAL_PERSON_ORGANIZATION ( #107, #62, #94 ) ;
#71 = LINE ( 'NONE', #12, #140 ) ;
#72 = EDGE_CURVE ( 'NONE', #18, #164, #71, .T. ) ;
#73 = APPLICATION_CONTEXT ( 'configuration controlled 3d designs of mechanical parts and assemblies' ) ;
#74 = ORIENTED_EDGE ( 'NONE', *, *, #165, .F. ) ;
#75 = CC_DESIGN_APPROVAL ( #62, ( #42 ) ) ;
#76 = CARTESIAN_POINT ( 'NONE',  ( -4.480750301490706600, -4.481839702842066200, -0.8340112927674455700 ) ) ;
#77 = APPROVAL_PERSON_ORGANIZATION ( #30, #187, #185 ) ;
#78 = VERTEX_POINT ( 'NONE', #161 ) ;
#79 = CARTESIAN_POINT ( 'NONE',  ( -2.775557561562891400E-014, -4.481839702842066200, -0.8340112927674482300 ) ) ;
#80 = AXIS2_PLACEMENT_3D ( 'NONE', #213, #198, #85 ) ;
#81 = CARTESIAN_POINT ( 'NONE',  ( 11.91778911384918700, 12.84550262836224900, 4.594674758849835800 ) ) ;
#82 = CARTESIAN_POINT ( 'NONE',  ( 4.480750301490667600, -4.481839702842067100, -0.8340112927674492300 ) ) ;
#83 = LOCAL_TIME ( 17, 1, 58.00000000000000000, #116 ) ;
#84 = VERTEX_POINT ( 'NONE', #163 ) ;
#85 = DIRECTION ( 'NONE',  ( 1.000000000000000000, 0.0000000000000000000, 0.0000000000000000000 ) ) ;
#86 = EDGE_CURVE ( 'NONE', #84, #78, #91, .T. ) ;
#87 = EDGE_LOOP ( 'NONE', ( #149, #51, #4 ) ) ;
#88 = DIRECTION ( 'NONE',  ( -0.0000000000000000000, -0.0000000000000000000, -1.000000000000000000 ) ) ;
#89 = CARTESIAN_POINT ( 'NONE',  ( 4.996003610813200500E-016, 2.442490654175340100E-015, 2.334648316459650100 ) ) ;
#90 = AXIS2_PLACEMENT_3D ( 'NONE', #224, #20, #16 ) ;
#91 = CIRCLE ( 'NONE', #189, 35.71000000000000100 ) ;
#92 = DIRECTION ( 'NONE',  ( 1.000000000000000000, 0.0000000000000000000, 0.0000000000000000000 ) ) ;
#93 = CIRCLE ( 'NONE', #167, 12.69999999999999900 ) ;
#94 = APPROVAL_ROLE ( '' ) ;
#95 = AXIS2_PLACEMENT_3D ( 'NONE', #124, #45, #196 ) ;
#96 = COORDINATED_UNIVERSAL_TIME_OFFSET ( 2, 0, .AHEAD. ) ;
#97 = ORIENTED_EDGE ( 'NONE', *, *, #58, .T. ) ;
#98 = CARTESIAN_POINT ( 'NONE',  ( -11.91778911384920800, -12.84550262836223100, 4.594674758849840200 ) ) ;
#99 = PERSON_AND_ORGANIZATION ( #159, #23 ) ;
#100 = CARTESIAN_POINT ( 'NONE',  ( -13.07109154407638300, 4.481839702842085800, 1.583597798591634700 ) ) ;
#101 = CARTESIAN_POINT ( 'NONE',  ( 4.996003610813200500E-016, 2.442490654175340100E-015, 4.500000000000000900 ) ) ;
#102 = CC_DESIGN_PERSON_AND_ORGANIZATION_ASSIGNMENT ( #14, #153, ( #42 ) ) ;
#103 = LOCAL_TIME ( 17, 1, 58.00000000000000000, #172 ) ;
#104 = DIRECTION ( 'NONE',  ( -0.0000000000000000000, -0.0000000000000000000, -1.000000000000000000 ) ) ;
#105 = DIRECTION ( 'NONE',  ( 0.0000000000000000000, 0.0000000000000000000, 1.000000000000000000 ) ) ;
#106 = DIRECTION ( 'NONE',  ( 1.000000000000000000, -8.881784197001252300E-016, 0.0000000000000000000 ) ) ;
#107 = PERSON_AND_ORGANIZATION ( #159, #23 ) ;
#108 = ORIENTED_EDGE ( 'NONE', *, *, #66, .T. ) ;
#109 = DIRECTION ( 'NONE',  ( 1.000000000000000000, 0.0000000000000000000, 0.0000000000000000000 ) ) ;
#110 = DATE_TIME_ROLE ( 'creation_date' ) ;
#111 = DIRECTION ( 'NONE',  ( -0.0000000000000000000, -0.0000000000000000000, -1.000000000000000000 ) ) ;
#112 = FACE_OUTER_BOUND ( 'NONE', #229, .T. ) ;
#113 = AXIS2_PLACEMENT_3D ( 'NONE', #202, #88, #109 ) ;
#114 =( NAMED_UNIT ( * ) PLANE_ANGLE_UNIT ( ) SI_UNIT ( $, .RADIAN. ) );
#115 =( BOUNDED_SURFACE ( )  B_SPLINE_SURFACE ( 3, 3, ( 
 ( #60, #195, #233, #125 ),
 ( #235, #82, #13, #145 ),
 ( #143, #31, #183, #63 ),
 ( #1, #146, #127, #81 ) ),
 .UNSPECIFIED., .F., .F., .T. ) 
 B_SPLINE_SURFACE_WITH_KNOTS ( ( 4, 4 ),
 ( 4, 4 ),
 ( 0.0000000000000000000, 1.000000000000000000 ),
 ( 0.0000000000000000000, 1.000000000000000000 ),
 .UNSPECIFIED. ) 
 GEOMETRIC_REPRESENTATION_ITEM ( )  RATIONAL_B_SPLINE_SURFACE ( (
 ( 1.000000000000000000, 0.9888812644167455100, 0.9888812644167455100, 1.000000000000000000),
 ( 0.9553742421307109800, 0.9447516885494075000, 0.9447516885494075000, 0.9553742421307109800),
 ( 0.9553742421307109800, 0.9447516885494075000, 0.9447516885494075000, 0.9553742421307109800),
 ( 1.000000000000000000, 0.9888812644167455100, 0.9888812644167455100, 1.000000000000000000) ) ) 
 REPRESENTATION_ITEM ( '' )  SURFACE ( )  );
#116 = COORDINATED_UNIVERSAL_TIME_OFFSET ( 2, 0, .AHEAD. ) ;
#117 = CC_DESIGN_DATE_AND_TIME_ASSIGNMENT ( #216, #110, ( #42 ) ) ;
#118 = ADVANCED_FACE ( 'NONE', ( #217 ), #44, .T. ) ;
#119 = CARTESIAN_POINT ( 'NONE',  ( -8.102663241696873800, 12.84550262836224600, 3.133405585710358700 ) ) ;
#120 = ADVANCED_FACE ( 'NONE', ( #27 ), #152, .T. ) ;
#121 = LOCAL_TIME ( 17, 1, 58.00000000000000000, #68 ) ;
#122 = ORIENTED_EDGE ( 'NONE', *, *, #206, .F. ) ;
#123 = ADVANCED_FACE ( 'NONE', ( #41 ), #115, .T. ) ;
#124 = CARTESIAN_POINT ( 'NONE',  ( 4.996003610813200500E-016, 2.442490654175340100E-015, 2.334648316459650100 ) ) ;
#125 = CARTESIAN_POINT ( 'NONE',  ( 11.91778911384918700, -12.84550262836223100, 4.594674758849835800 ) ) ;
#126 = SHAPE_DEFINITION_REPRESENTATION ( #173, #186 ) ;
#127 = CARTESIAN_POINT ( 'NONE',  ( 8.102663241696847200, 12.84550262836224700, 3.133405585710352900 ) ) ;
#128 = APPROVAL ( #36, 'UNSPECIFIED' ) ;
#129 = LOCAL_TIME ( 17, 1, 58.00000000000000000, #96 ) ;
#130 = EDGE_LOOP ( 'NONE', ( #175, #74, #193, #97, #108 ) ) ;
#131 = PERSON_AND_ORGANIZATION_ROLE ( 'design_supplier' ) ;
#132 = APPLICATION_PROTOCOL_DEFINITION ( 'international standard', 'config_control_design', 1994, #73 ) ;
#133 = MECHANICAL_CONTEXT ( 'NONE', #221, 'mechanical' ) ;
#134 = APPROVAL_STATUS ( 'not_yet_approved' ) ;
#135 = LINE ( 'NONE', #49, #144 ) ;
#136 = CIRCLE ( 'NONE', #139, 12.69999999999999900 ) ;
#137 = CARTESIAN_POINT ( 'NONE',  ( -2.602085213965210600E-014, 12.84550262836224900, 2.390378720268459200 ) ) ;
#138 = CARTESIAN_POINT ( 'NONE',  ( -8.102663241696873800, -12.84550262836223000, 3.133405585710358700 ) ) ;
#139 = AXIS2_PLACEMENT_3D ( 'NONE', #89, #3, #69 ) ;
#140 = VECTOR ( 'NONE', #158, 1000.000000000000000 ) ;
#141 = DESIGN_CONTEXT ( 'detailed design', #73, 'design' ) ;
#142 = CARTESIAN_POINT ( 'NONE',  ( -3.552713678800500100E-015, 1.065814103640150000E-014, 35.71000000000000100 ) ) ;
#143 = CARTESIAN_POINT ( 'NONE',  ( -1.857997090509714600E-014, 4.481839702842085800, -0.8340112927674466800 ) ) ;
#144 = VECTOR ( 'NONE', #200, 1000.000000000000000 ) ;
#145 = CARTESIAN_POINT ( 'NONE',  ( 13.07109154407636000, -4.481839702842066200, 1.583597798591628100 ) ) ;
#146 = CARTESIAN_POINT ( 'NONE',  ( 4.085399982466067400, 12.84550262836224700, 2.390378720268459700 ) ) ;
#147 = ORIENTED_EDGE ( 'NONE', *, *, #52, .T. ) ;
#148 = DATE_AND_TIME ( #201, #103 ) ;
#149 = ORIENTED_EDGE ( 'NONE', *, *, #155, .T. ) ;
#150 = DATE_TIME_ROLE ( 'classification_date' ) ;
#151 = CC_DESIGN_PERSON_AND_ORGANIZATION_ASSIGNMENT ( #166, #57, ( #22 ) ) ;
#152 = CYLINDRICAL_SURFACE ( 'NONE', #95, 12.69999999999999900 ) ;
#153 = PERSON_AND_ORGANIZATION_ROLE ( 'creator' ) ;
#154 = APPROVAL_DATE_TIME ( #53, #128 ) ;
#155 = EDGE_CURVE ( 'NONE', #8, #84, #136, .T. ) ;
#156 = ORIENTED_EDGE ( 'NONE', *, *, #58, .F. ) ;
#157 = CARTESIAN_POINT ( 'NONE',  ( 12.69999999999999900, 2.442490654175340100E-015, 2.334648316459650100 ) ) ;
#158 = DIRECTION ( 'NONE',  ( 0.0000000000000000000, 0.0000000000000000000, 1.000000000000000000 ) ) ;
#159 = PERSON ( 'UNSPECIFIED', 'UNSPECIFIED', 'UNSPECIFIED', ('UNSPECIFIED'), ('UNSPECIFIED'), ('UNSPECIFIED') ) ;
#160 = PERSON_AND_ORGANIZATION ( #159, #23 ) ;
#161 = CARTESIAN_POINT ( 'NONE',  ( -1.727698687772913700E-014, 12.70000000000001200, 2.334648316459647400 ) ) ;
#162 = DIRECTION ( 'NONE',  ( -0.0000000000000000000, -0.0000000000000000000, -1.000000000000000000 ) ) ;
#163 = CARTESIAN_POINT ( 'NONE',  ( -1.727698687772913700E-014, -12.69999999999999900, 2.334648316459647400 ) ) ;
#164 = VERTEX_POINT ( 'NONE', #218 ) ;
#165 = EDGE_CURVE ( 'NONE', #84, #18, #170, .T. ) ;
#166 = PERSON_AND_ORGANIZATION ( #159, #23 ) ;
#167 = AXIS2_PLACEMENT_3D ( 'NONE', #180, #162, #106 ) ;
#168 = SECURITY_CLASSIFICATION_LEVEL ( 'unclassified' ) ;
#169 = APPROVAL_PERSON_ORGANIZATION ( #160, #128, #19 ) ;
#170 = CIRCLE ( 'NONE', #113, 12.69999999999999900 ) ;
#171 = APPROVAL_STATUS ( 'not_yet_approved' ) ;
#172 = COORDINATED_UNIVERSAL_TIME_OFFSET ( 2, 0, .AHEAD. ) ;
#173 = PRODUCT_DEFINITION_SHAPE ( 'NONE', 'NONE',  #42 ) ;
#174 = APPROVAL_DATE_TIME ( #209, #187 ) ;
#175 = ORIENTED_EDGE ( 'NONE', *, *, #72, .F. ) ;
#176 = CARTESIAN_POINT ( 'NONE',  ( -4.480750301490705700, 4.481839702842084000, -0.8340112927674450100 ) ) ;
#177 = CARTESIAN_POINT ( 'NONE',  ( -12.69999999999999900, 3.997792089092478900E-015, 2.334648316459650100 ) ) ;
#178 = CC_DESIGN_DATE_AND_TIME_ASSIGNMENT ( #227, #150, ( #22 ) ) ;
#179 = CARTESIAN_POINT ( 'NONE',  ( -13.07109154407638300, -4.481839702842066200, 1.583597798591634100 ) ) ;
#180 = CARTESIAN_POINT ( 'NONE',  ( 4.996003610813200500E-016, 2.442490654175340100E-015, 2.334648316459650100 ) ) ;
#181 = APPROVAL_DATE_TIME ( #148, #62 ) ;
#182 = ORIENTED_EDGE ( 'NONE', *, *, #206, .T. ) ;
#183 = CARTESIAN_POINT ( 'NONE',  ( 8.886770186256061500, 4.481839702842083100, -0.01908059671972516300 ) ) ;
#184 = CIRCLE ( 'NONE', #40, 12.69999999999999900 ) ;
#185 = APPROVAL_ROLE ( '' ) ;
#186 = ADVANCED_BREP_SHAPE_REPRESENTATION ( '110-1209E UVFS pl-cx 25.4 F75', ( #220, #90 ), #219 ) ;
#187 = APPROVAL ( #134, 'UNSPECIFIED' ) ;
#188 =( NAMED_UNIT ( * ) SI_UNIT ( $, .STERADIAN. ) SOLID_ANGLE_UNIT ( ) );
#189 = AXIS2_PLACEMENT_3D ( 'NONE', #142, #46, #232 ) ;
#190 = CIRCLE ( 'NONE', #80, 12.69999999999999900 ) ;
#191 = CARTESIAN_POINT ( 'NONE',  ( -8.886770186256091700, -4.481839702842066200, -0.01908059671971865800 ) ) ;
#192 = ADVANCED_FACE ( 'NONE', ( #112 ), #34, .T. ) ;
#193 = ORIENTED_EDGE ( 'NONE', *, *, #155, .F. ) ;
#194 = PRODUCT ( '110-1209E UVFS pl-cx 25.4 F75', '110-1209E UVFS pl-cx 25.4 F75', '', ( #133 ) ) ;
#195 = CARTESIAN_POINT ( 'NONE',  ( 4.085399982466067400, -12.84550262836223500, 2.390378720268459700 ) ) ;
#196 = DIRECTION ( 'NONE',  ( 1.000000000000000000, 0.0000000000000000000, 0.0000000000000000000 ) ) ;
#197 =( BOUNDED_SURFACE ( )  B_SPLINE_SURFACE ( 3, 3, ( 
 ( #98, #138, #230, #26 ),
 ( #179, #191, #76, #79 ),
 ( #100, #231, #176, #207 ),
 ( #208, #119, #228, #137 ) ),
 .UNSPECIFIED., .F., .F., .T. ) 
 B_SPLINE_SURFACE_WITH_KNOTS ( ( 4, 4 ),
 ( 4, 4 ),
 ( 0.0000000000000000000, 1.000000000000000000 ),
 ( 0.0000000000000000000, 1.000000000000000000 ),
 .UNSPECIFIED. ) 
 GEOMETRIC_REPRESENTATION_ITEM ( )  RATIONAL_B_SPLINE_SURFACE ( (
 ( 1.000000000000000000, 0.9888812644167456200, 0.9888812644167456200, 1.000000000000000000),
 ( 0.9553742421307109800, 0.9447516885494076100, 0.9447516885494076100, 0.9553742421307109800),
 ( 0.9553742421307109800, 0.9447516885494076100, 0.9447516885494076100, 0.9553742421307109800),
 ( 1.000000000000000000, 0.9888812644167456200, 0.9888812644167456200, 1.000000000000000000) ) ) 
 REPRESENTATION_ITEM ( '' )  SURFACE ( )  );
#198 = DIRECTION ( 'NONE',  ( -0.0000000000000000000, -0.0000000000000000000, -1.000000000000000000 ) ) ;
#199 = ORIENTED_EDGE ( 'NONE', *, *, #72, .T. ) ;
#200 = DIRECTION ( 'NONE',  ( 0.0000000000000000000, 0.0000000000000000000, 1.000000000000000000 ) ) ;
#201 = CALENDAR_DATE ( 2018, 13, 12 ) ;
#202 = CARTESIAN_POINT ( 'NONE',  ( 4.996003610813200500E-016, 2.442490654175340100E-015, 2.334648316459650100 ) ) ;
#203 = DIRECTION ( 'NONE',  ( 0.0000000000000000000, 0.0000000000000000000, 1.000000000000000000 ) ) ;
#204 = AXIS2_PLACEMENT_3D ( 'NONE', #67, #203, #205 ) ;
#205 = DIRECTION ( 'NONE',  ( 1.000000000000000000, 0.0000000000000000000, -0.0000000000000000000 ) ) ;
#206 = EDGE_CURVE ( 'NONE', #164, #48, #210, .T. ) ;
#207 = CARTESIAN_POINT ( 'NONE',  ( -2.775557561562891400E-014, 4.481839702842085800, -0.8340112927674479000 ) ) ;
#208 = CARTESIAN_POINT ( 'NONE',  ( -11.91778911384920800, 12.84550262836224900, 4.594674758849840200 ) ) ;
#209 = DATE_AND_TIME ( #222, #129 ) ;
#210 = CIRCLE ( 'NONE', #214, 12.69999999999999900 ) ;
#211 = CC_DESIGN_PERSON_AND_ORGANIZATION_ASSIGNMENT ( #56, #131, ( #59 ) ) ;
#212 = PERSON_AND_ORGANIZATION ( #159, #23 ) ;
#213 = CARTESIAN_POINT ( 'NONE',  ( 4.996003610813200500E-016, 2.442490654175340100E-015, 2.334648316459650100 ) ) ;
#214 = AXIS2_PLACEMENT_3D ( 'NONE', #55, #111, #92 ) ;
#215 = DIRECTION ( 'NONE',  ( 1.000000000000000000, 0.0000000000000000000, 0.0000000000000000000 ) ) ;
#216 = DATE_AND_TIME ( #11, #83 ) ;
#217 = FACE_OUTER_BOUND ( 'NONE', #130, .T. ) ;
#218 = CARTESIAN_POINT ( 'NONE',  ( -12.69999999999999900, 3.997792089092478900E-015, 4.500000000000000900 ) ) ;
#219 =( GEOMETRIC_REPRESENTATION_CONTEXT ( 3 ) GLOBAL_UNCERTAINTY_ASSIGNED_CONTEXT ( ( #15 ) ) GLOBAL_UNIT_ASSIGNED_CONTEXT ( ( #39, #114, #188 ) ) REPRESENTATION_CONTEXT ( 'NONE', 'WORKASPACE' ) );
#220 = MANIFOLD_SOLID_BREP ( 'Imported1', #10 ) ;
#221 = APPLICATION_CONTEXT ( 'configuration controlled 3d designs of mechanical parts and assemblies' ) ;
#222 = CALENDAR_DATE ( 2018, 13, 12 ) ;
#223 = FACE_OUTER_BOUND ( 'NONE', #234, .T. ) ;
#224 = CARTESIAN_POINT ( 'NONE',  ( 0.0000000000000000000, 0.0000000000000000000, 0.0000000000000000000 ) ) ;
#225 = CC_DESIGN_SECURITY_CLASSIFICATION ( #22, ( #59 ) ) ;
#226 = CC_DESIGN_APPROVAL ( #128, ( #59 ) ) ;
#227 = DATE_AND_TIME ( #37, #64 ) ;
#228 = CARTESIAN_POINT ( 'NONE',  ( -4.085399982466102900, 12.84550262836224600, 2.390378720268461000 ) ) ;
#229 = EDGE_LOOP ( 'NONE', ( #38, #122 ) ) ;
#230 = CARTESIAN_POINT ( 'NONE',  ( -4.085399982466102900, -12.84550262836223000, 2.390378720268461000 ) ) ;
#231 = CARTESIAN_POINT ( 'NONE',  ( -8.886770186256091700, 4.481839702842084000, -0.01908059671971822800 ) ) ;
#232 = DIRECTION ( 'NONE',  ( 0.0000000000000000000, -1.000000000000000000, 0.0000000000000000000 ) ) ;
#233 = CARTESIAN_POINT ( 'NONE',  ( 8.102663241696847200, -12.84550262836223500, 3.133405585710352900 ) ) ;
#234 = EDGE_LOOP ( 'NONE', ( #65, #32, #147 ) ) ;
#235 = CARTESIAN_POINT ( 'NONE',  ( -1.857997090509714600E-014, -4.481839702842066200, -0.8340112927674474500 ) ) ;
ENDSEC;
END-ISO-10303-21;
