ISO-10303-21;
HEADER;
FILE_DESCRIPTION (( 'STEP AP203' ),
    '1' );
FILE_NAME ('110-1207E UVFS pl-cx 25.4 F60.STEP',
    '2018-12-13T15:02:07',
    ( '' ),
    ( '' ),
    'SwSTEP 2.0',
    'SolidWorks 2017',
    '' );
FILE_SCHEMA (( 'CONFIG_CONTROL_DESIGN' ));
ENDSEC;

DATA;
#1 = DIRECTION ( 'NONE',  ( 1.000000000000000000, -2.543642856077740100E-016, -2.198225105293790000E-016 ) ) ;
#2 = CARTESIAN_POINT ( 'NONE',  ( -12.69999999999999900, 3.997792089092478900E-015, 5.000000000000000000 ) ) ;
#3 = DIRECTION ( 'NONE',  ( 1.000000000000000000, 0.0000000000000000000, 0.0000000000000000000 ) ) ;
#4 = CARTESIAN_POINT ( 'NONE',  ( -3.977732106442706300, -12.84126185354288400, 3.049696316806727900 ) ) ;
#5 = APPROVAL_DATE_TIME ( #56, #60 ) ;
#6 = ORIENTED_EDGE ( 'NONE', *, *, #155, .T. ) ;
#7 = DIRECTION ( 'NONE',  ( -0.0000000000000000000, -0.0000000000000000000, -1.000000000000000000 ) ) ;
#8 = CARTESIAN_POINT ( 'NONE',  ( 4.996003610813200500E-016, 2.442490654175340100E-015, 2.979077420859110000 ) ) ;
#9 = AXIS2_PLACEMENT_3D ( 'NONE', #114, #7, #26 ) ;
#10 = FACE_OUTER_BOUND ( 'NONE', #185, .T. ) ;
#11 = APPROVAL_ROLE ( '' ) ;
#12 = APPROVAL ( #227, 'UNSPECIFIED' ) ;
#13 = VERTEX_POINT ( 'NONE', #2 ) ;
#14 = LOCAL_TIME ( 17, 2, 7.000000000000000000, #78 ) ;
#15 = VERTEX_POINT ( 'NONE', #94 ) ;
#16 = DESIGN_CONTEXT ( 'detailed design', #51, 'design' ) ;
#17 = CARTESIAN_POINT ( 'NONE',  ( -8.853689050223156000E-015, -12.69999999999999600, 2.979077420859110900 ) ) ;
#18 = AXIS2_PLACEMENT_3D ( 'NONE', #8, #153, #84 ) ;
#19 = CARTESIAN_POINT ( 'NONE',  ( 12.69999999999999900, 2.442490654175340100E-015, 2.979077420859110000 ) ) ;
#20 = DIRECTION ( 'NONE',  ( 1.000000000000000000, 0.0000000000000000000, -0.0000000000000000000 ) ) ;
#21 = CARTESIAN_POINT ( 'NONE',  ( -4.623918862141064100, 4.608490066539658900, -1.094479292008883300 ) ) ;
#22 = EDGE_CURVE ( 'NONE', #72, #196, #106, .T. ) ;
#23 = CARTESIAN_POINT ( 'NONE',  ( -3.977732106442697400, 12.84126185354289100, 3.049696316806733300 ) ) ;
#24 = COORDINATED_UNIVERSAL_TIME_OFFSET ( 2, 0, .AHEAD. ) ;
#25 = ORIENTED_EDGE ( 'NONE', *, *, #231, .F. ) ;
#26 = DIRECTION ( 'NONE',  ( 1.000000000000000000, 0.0000000000000000000, 0.0000000000000000000 ) ) ;
#27 = CARTESIAN_POINT ( 'NONE',  ( -1.561251128379126400E-014, -4.608490066539652700, -1.094479292008889900 ) ) ;
#28 = ORIENTED_EDGE ( 'NONE', *, *, #117, .T. ) ;
#29 =( NAMED_UNIT ( * ) SI_UNIT ( $, .STERADIAN. ) SOLID_ANGLE_UNIT ( ) );
#30 = AXIS2_PLACEMENT_3D ( 'NONE', #125, #218, #20 ) ;
#31 = ADVANCED_FACE ( 'NONE', ( #216 ), #39, .T. ) ;
#32 = CIRCLE ( 'NONE', #63, 12.69999999999999900 ) ;
#33 = AXIS2_PLACEMENT_3D ( 'NONE', #41, #80, #157 ) ;
#34 = DATE_AND_TIME ( #205, #211 ) ;
#35 = CIRCLE ( 'NONE', #9, 12.69999999999999900 ) ;
#36 = EDGE_CURVE ( 'NONE', #196, #162, #127, .T. ) ;
#37 = CARTESIAN_POINT ( 'NONE',  ( 12.69999999999999900, 2.442490654175340100E-015, 2.979077420859110000 ) ) ;
#38 = CARTESIAN_POINT ( 'NONE',  ( -8.874097397685207600E-015, -12.84126185354288700, 3.049696316806724400 ) ) ;
#39 = PLANE ( 'NONE',  #30 ) ;
#40 = LOCAL_TIME ( 17, 2, 7.000000000000000000, #90 ) ;
#41 = CARTESIAN_POINT ( 'NONE',  ( 0.0000000000000000000, 0.0000000000000000000, 0.0000000000000000000 ) ) ;
#42 = CC_DESIGN_APPROVAL ( #55, ( #132 ) ) ;
#43 = CARTESIAN_POINT ( 'NONE',  ( 4.996003610813200500E-016, 2.442490654175340100E-015, 2.979077420859110000 ) ) ;
#44 = ADVANCED_FACE ( 'NONE', ( #10 ), #184, .T. ) ;
#45 = CARTESIAN_POINT ( 'NONE',  ( -9.124179411815346100, 4.608490066539661500, -0.03227374282871974000 ) ) ;
#46 = PERSON_AND_ORGANIZATION ( #82, #95 ) ;
#47 = VERTEX_POINT ( 'NONE', #92 ) ;
#48 = CARTESIAN_POINT ( 'NONE',  ( -2.392836195785697900E-015, 12.69999999999999800, 2.979077420859110900 ) ) ;
#49 = SECURITY_CLASSIFICATION_LEVEL ( 'unclassified' ) ;
#50 = PERSON_AND_ORGANIZATION ( #82, #95 ) ;
#51 = APPLICATION_CONTEXT ( 'configuration controlled 3d designs of mechanical parts and assemblies' ) ;
#52 = ORIENTED_EDGE ( 'NONE', *, *, #36, .T. ) ;
#53 = ADVANCED_BREP_SHAPE_REPRESENTATION ( '110-1207E UVFS pl-cx 25.4 F60', ( #152, #33 ), #64 ) ;
#54 = CIRCLE ( 'NONE', #198, 12.69999999999999900 ) ;
#55 = APPROVAL ( #208, 'UNSPECIFIED' ) ;
#56 = DATE_AND_TIME ( #149, #109 ) ;
#57 = DIRECTION ( 'NONE',  ( 1.000000000000000000, 8.881784197001252300E-016, 0.0000000000000000000 ) ) ;
#58 = CARTESIAN_POINT ( 'NONE',  ( 7.849086991659707000, -12.84126185354288700, 3.963459997049829700 ) ) ;
#59 = ORIENTED_EDGE ( 'NONE', *, *, #22, .T. ) ;
#60 = APPROVAL ( #134, 'UNSPECIFIED' ) ;
#61 = AXIS2_PLACEMENT_3D ( 'NONE', #201, #171, #112 ) ;
#62 = CARTESIAN_POINT ( 'NONE',  ( 13.26007905807133500, -4.608490066539655300, 2.035323838849937900 ) ) ;
#63 = AXIS2_PLACEMENT_3D ( 'NONE', #193, #146, #3 ) ;
#64 =( GEOMETRIC_REPRESENTATION_CONTEXT ( 3 ) GLOBAL_UNCERTAINTY_ASSIGNED_CONTEXT ( ( #93 ) ) GLOBAL_UNIT_ASSIGNED_CONTEXT ( ( #209, #154, #29 ) ) REPRESENTATION_CONTEXT ( 'NONE', 'WORKASPACE' ) );
#65 = CARTESIAN_POINT ( 'NONE',  ( -13.26007905807133200, -4.608490066539648200, 2.035323838849937900 ) ) ;
#66 = ORIENTED_EDGE ( 'NONE', *, *, #197, .F. ) ;
#67 = ADVANCED_FACE ( 'NONE', ( #215 ), #190, .T. ) ;
#68 = DATE_TIME_ROLE ( 'creation_date' ) ;
#69 = APPLICATION_PROTOCOL_DEFINITION ( 'international standard', 'config_control_design', 1994, #103 ) ;
#70 = CC_DESIGN_PERSON_AND_ORGANIZATION_ASSIGNMENT ( #46, #86, ( #200 ) ) ;
#71 = MECHANICAL_CONTEXT ( 'NONE', #103, 'mechanical' ) ;
#72 = VERTEX_POINT ( 'NONE', #17 ) ;
#73 = ORIENTED_EDGE ( 'NONE', *, *, #117, .F. ) ;
#74 = APPROVAL_PERSON_ORGANIZATION ( #122, #55, #194 ) ;
#75 = DIRECTION ( 'NONE',  ( 1.000000000000000000, 0.0000000000000000000, 0.0000000000000000000 ) ) ;
#76 = ORIENTED_EDGE ( 'NONE', *, *, #87, .F. ) ;
#77 = CARTESIAN_POINT ( 'NONE',  ( 7.849086991659709700, 12.84126185354288700, 3.963459997049832800 ) ) ;
#78 = COORDINATED_UNIVERSAL_TIME_OFFSET ( 2, 0, .AHEAD. ) ;
#79 = PRODUCT_RELATED_PRODUCT_CATEGORY ( 'detail', '', ( #192 ) ) ;
#80 = DIRECTION ( 'NONE',  ( 0.0000000000000000000, 0.0000000000000000000, 1.000000000000000000 ) ) ;
#81 = CARTESIAN_POINT ( 'NONE',  ( 4.623918862141055200, 4.608490066539656200, -1.094479292008889900 ) ) ;
#82 = PERSON ( 'UNSPECIFIED', 'UNSPECIFIED', 'UNSPECIFIED', ('UNSPECIFIED'), ('UNSPECIFIED'), ('UNSPECIFIED') ) ;
#83 = CLOSED_SHELL ( 'NONE', ( #115, #67, #128, #44, #31 ) ) ;
#84 = DIRECTION ( 'NONE',  ( 1.000000000000000000, 0.0000000000000000000, 0.0000000000000000000 ) ) ;
#85 = PERSON_AND_ORGANIZATION ( #82, #95 ) ;
#86 = PERSON_AND_ORGANIZATION_ROLE ( 'creator' ) ;
#87 = EDGE_CURVE ( 'NONE', #162, #15, #199, .T. ) ;
#88 = DATE_TIME_ROLE ( 'classification_date' ) ;
#89 = ORIENTED_EDGE ( 'NONE', *, *, #36, .F. ) ;
#90 = COORDINATED_UNIVERSAL_TIME_OFFSET ( 2, 0, .AHEAD. ) ;
#91 = ORIENTED_EDGE ( 'NONE', *, *, #197, .T. ) ;
#92 = CARTESIAN_POINT ( 'NONE',  ( -12.69999999999999900, 3.997792089092478900E-015, 2.979077420859110000 ) ) ;
#93 = UNCERTAINTY_MEASURE_WITH_UNIT (LENGTH_MEASURE( 1.000000000000000100E-005 ), #209, 'distance_accuracy_value', 'NONE');
#94 = CARTESIAN_POINT ( 'NONE',  ( 12.69999999999999900, 2.442490654175340100E-015, 5.000000000000000000 ) ) ;
#95 = ORGANIZATION ( 'UNSPECIFIED', 'UNSPECIFIED', '' ) ;
#96 = DIRECTION ( 'NONE',  ( -0.0000000000000000000, -0.0000000000000000000, -1.000000000000000000 ) ) ;
#97 = CARTESIAN_POINT ( 'NONE',  ( -1.387778780781445700E-014, 4.608490066539658000, -1.094479292008885700 ) ) ;
#98 = CARTESIAN_POINT ( 'NONE',  ( 3.977732106442695600, 12.84126185354288700, 3.049696316806727000 ) ) ;
#99 = PERSON_AND_ORGANIZATION ( #82, #95 ) ;
#100 = ORIENTED_EDGE ( 'NONE', *, *, #87, .T. ) ;
#101 = CARTESIAN_POINT ( 'NONE',  ( -9.124179411815346100, -4.608490066539649100, -0.03227374282872363900 ) ) ;
#102 = DATE_AND_TIME ( #177, #123 ) ;
#103 = APPLICATION_CONTEXT ( 'configuration controlled 3d designs of mechanical parts and assemblies' ) ;
#104 = PERSON_AND_ORGANIZATION_ROLE ( 'design_owner' ) ;
#105 = SECURITY_CLASSIFICATION ( '', '', #49 ) ;
#106 = CIRCLE ( 'NONE', #168, 28.55999999999999900 ) ;
#107 = CC_DESIGN_APPROVAL ( #12, ( #105 ) ) ;
#108 = AXIS2_PLACEMENT_3D ( 'NONE', #145, #111, #75 ) ;
#109 = LOCAL_TIME ( 17, 2, 7.000000000000000000, #183 ) ;
#110 = AXIS2_PLACEMENT_3D ( 'NONE', #234, #96, #57 ) ;
#111 = DIRECTION ( 'NONE',  ( 0.0000000000000000000, 0.0000000000000000000, 1.000000000000000000 ) ) ;
#112 = DIRECTION ( 'NONE',  ( 1.000000000000000000, 0.0000000000000000000, 0.0000000000000000000 ) ) ;
#113 = CARTESIAN_POINT ( 'NONE',  ( 9.124179411815346100, 4.608490066539654400, -0.03227374282872581100 ) ) ;
#114 = CARTESIAN_POINT ( 'NONE',  ( 4.996003610813200500E-016, 2.442490654175340100E-015, 2.979077420859110000 ) ) ;
#115 = ADVANCED_FACE ( 'NONE', ( #195 ), #133, .T. ) ;
#116 = CARTESIAN_POINT ( 'NONE',  ( -13.26007905807132300, 4.608490066539661500, 2.035323838849941900 ) ) ;
#117 = EDGE_CURVE ( 'NONE', #47, #13, #142, .T. ) ;
#118 = PERSON_AND_ORGANIZATION_ROLE ( 'creator' ) ;
#119 = CALENDAR_DATE ( 2018, 13, 12 ) ;
#120 = EDGE_LOOP ( 'NONE', ( #138, #59, #52 ) ) ;
#121 = DATE_AND_TIME ( #181, #40 ) ;
#122 = PERSON_AND_ORGANIZATION ( #82, #95 ) ;
#123 = LOCAL_TIME ( 17, 2, 7.000000000000000000, #217 ) ;
#124 = EDGE_CURVE ( 'NONE', #162, #72, #35, .T. ) ;
#125 = CARTESIAN_POINT ( 'NONE',  ( 0.0000000000000000000, 26.11199999999999800, 5.000000000000000000 ) ) ;
#126 = CARTESIAN_POINT ( 'NONE',  ( -8.673617379884035500E-015, 12.84126185354289100, 3.049696316806731000 ) ) ;
#127 = CIRCLE ( 'NONE', #110, 12.69999999999999900 ) ;
#128 = ADVANCED_FACE ( 'NONE', ( #163 ), #161, .T. ) ;
#129 = CARTESIAN_POINT ( 'NONE',  ( -11.40699994437957800, 12.84126185354289400, 5.742113457253138300 ) ) ;
#130 = CARTESIAN_POINT ( 'NONE',  ( -1.561251128379126400E-014, -12.84126185354288700, 3.049696316806726100 ) ) ;
#131 = CIRCLE ( 'NONE', #18, 12.69999999999999900 ) ;
#132 = PRODUCT_DEFINITION ( 'UNKNOWN', '', #200, #16 ) ;
#133 =( BOUNDED_SURFACE ( )  B_SPLINE_SURFACE ( 3, 3, ( 
 ( #38, #166, #58, #221 ),
 ( #203, #176, #148, #62 ),
 ( #147, #81, #113, #189 ),
 ( #206, #98, #77, #204 ) ),
 .UNSPECIFIED., .F., .F., .T. ) 
 B_SPLINE_SURFACE_WITH_KNOTS ( ( 4, 4 ),
 ( 4, 4 ),
 ( 0.0000000000000000000, 1.000000000000000000 ),
 ( 0.0000000000000000000, 1.000000000000000000 ),
 .UNSPECIFIED. ) 
 GEOMETRIC_REPRESENTATION_ITEM ( )  RATIONAL_B_SPLINE_SURFACE ( (
 ( 1.000000000000000000, 0.9821712107336427700, 0.9821712107336427700, 1.000000000000000000),
 ( 0.9288119440521305200, 0.9122523516335495600, 0.9122523516335495600, 0.9288119440521305200),
 ( 0.9288119440521305200, 0.9122523516335495600, 0.9122523516335495600, 0.9288119440521305200),
 ( 1.000000000000000000, 0.9821712107336427700, 0.9821712107336427700, 1.000000000000000000) ) ) 
 REPRESENTATION_ITEM ( '' )  SURFACE ( )  );
#134 = APPROVAL_STATUS ( 'not_yet_approved' ) ;
#135 = APPLICATION_PROTOCOL_DEFINITION ( 'international standard', 'config_control_design', 1994, #51 ) ;
#136 = APPROVAL_DATE_TIME ( #140, #55 ) ;
#137 = CC_DESIGN_PERSON_AND_ORGANIZATION_ASSIGNMENT ( #99, #178, ( #105 ) ) ;
#138 = ORIENTED_EDGE ( 'NONE', *, *, #124, .T. ) ;
#139 = EDGE_CURVE ( 'NONE', #47, #196, #131, .T. ) ;
#140 = DATE_AND_TIME ( #119, #14 ) ;
#141 = CC_DESIGN_DATE_AND_TIME_ASSIGNMENT ( #102, #88, ( #105 ) ) ;
#142 = LINE ( 'NONE', #223, #220 ) ;
#143 = ORIENTED_EDGE ( 'NONE', *, *, #22, .F. ) ;
#144 = DIRECTION ( 'NONE',  ( 0.0000000000000000000, 0.0000000000000000000, 1.000000000000000000 ) ) ;
#145 = CARTESIAN_POINT ( 'NONE',  ( 4.996003610813200500E-016, 2.442490654175340100E-015, 2.979077420859110000 ) ) ;
#146 = DIRECTION ( 'NONE',  ( -0.0000000000000000000, -0.0000000000000000000, -1.000000000000000000 ) ) ;
#147 = CARTESIAN_POINT ( 'NONE',  ( -5.346486802904994100E-015, 4.608490066539658000, -1.094479292008889000 ) ) ;
#148 = CARTESIAN_POINT ( 'NONE',  ( 9.124179411815346100, -4.608490066539653500, -0.03227374282872971100 ) ) ;
#149 = CALENDAR_DATE ( 2018, 13, 12 ) ;
#150 = ORIENTED_EDGE ( 'NONE', *, *, #155, .F. ) ;
#151 = CARTESIAN_POINT ( 'NONE',  ( -4.623918862141065800, -4.608490066539651800, -1.094479292008887500 ) ) ;
#152 = MANIFOLD_SOLID_BREP ( 'Imported1', #83 ) ;
#153 = DIRECTION ( 'NONE',  ( -0.0000000000000000000, -0.0000000000000000000, -1.000000000000000000 ) ) ;
#154 =( NAMED_UNIT ( * ) PLANE_ANGLE_UNIT ( ) SI_UNIT ( $, .RADIAN. ) );
#155 = EDGE_CURVE ( 'NONE', #15, #13, #32, .T. ) ;
#156 = EDGE_LOOP ( 'NONE', ( #229, #28, #167, #76, #89 ) ) ;
#157 = DIRECTION ( 'NONE',  ( 1.000000000000000000, 0.0000000000000000000, 0.0000000000000000000 ) ) ;
#158 = DIRECTION ( 'NONE',  ( 1.000000000000000000, 0.0000000000000000000, 0.0000000000000000000 ) ) ;
#159 = APPROVAL_PERSON_ORGANIZATION ( #232, #60, #213 ) ;
#160 = CC_DESIGN_APPROVAL ( #60, ( #200 ) ) ;
#161 =( BOUNDED_SURFACE ( )  B_SPLINE_SURFACE ( 3, 3, ( 
 ( #235, #222, #4, #130 ),
 ( #65, #101, #151, #27 ),
 ( #116, #45, #21, #97 ),
 ( #129, #224, #23, #126 ) ),
 .UNSPECIFIED., .F., .F., .F. ) 
 B_SPLINE_SURFACE_WITH_KNOTS ( ( 4, 4 ),
 ( 4, 4 ),
 ( 0.0000000000000000000, 1.000000000000000000 ),
 ( 0.0000000000000000000, 1.000000000000000000 ),
 .UNSPECIFIED. ) 
 GEOMETRIC_REPRESENTATION_ITEM ( )  RATIONAL_B_SPLINE_SURFACE ( (
 ( 1.000000000000000000, 0.9821712107336427700, 0.9821712107336427700, 1.000000000000000000),
 ( 0.9288119440521305200, 0.9122523516335495600, 0.9122523516335495600, 0.9288119440521305200),
 ( 0.9288119440521305200, 0.9122523516335495600, 0.9122523516335495600, 0.9288119440521305200),
 ( 1.000000000000000000, 0.9821712107336427700, 0.9821712107336427700, 1.000000000000000000) ) ) 
 REPRESENTATION_ITEM ( '' )  SURFACE ( )  );
#162 = VERTEX_POINT ( 'NONE', #37 ) ;
#163 = FACE_OUTER_BOUND ( 'NONE', #174, .T. ) ;
#164 = CC_DESIGN_PERSON_AND_ORGANIZATION_ASSIGNMENT ( #182, #118, ( #132 ) ) ;
#165 = DIRECTION ( 'NONE',  ( -2.543642856077739600E-016, -1.000000000000000000, 2.429584700247629200E-016 ) ) ;
#166 = CARTESIAN_POINT ( 'NONE',  ( 3.977732106442692000, -12.84126185354288700, 3.049696316806723000 ) ) ;
#167 = ORIENTED_EDGE ( 'NONE', *, *, #231, .T. ) ;
#168 = AXIS2_PLACEMENT_3D ( 'NONE', #169, #1, #165 ) ;
#169 = CARTESIAN_POINT ( 'NONE',  ( 0.0000000000000000000, 1.776356839400250100E-015, 28.55999999999999900 ) ) ;
#170 = PRODUCT_DEFINITION_SHAPE ( 'NONE', 'NONE',  #132 ) ;
#171 = DIRECTION ( 'NONE',  ( 0.0000000000000000000, 0.0000000000000000000, 1.000000000000000000 ) ) ;
#172 = APPROVAL_DATE_TIME ( #121, #12 ) ;
#173 = VECTOR ( 'NONE', #144, 1000.000000000000000 ) ;
#174 = EDGE_LOOP ( 'NONE', ( #143, #91, #191 ) ) ;
#175 = DIRECTION ( 'NONE',  ( -0.0000000000000000000, -0.0000000000000000000, -1.000000000000000000 ) ) ;
#176 = CARTESIAN_POINT ( 'NONE',  ( 4.623918862141052500, -4.608490066539653500, -1.094479292008893700 ) ) ;
#177 = CALENDAR_DATE ( 2018, 13, 12 ) ;
#178 = PERSON_AND_ORGANIZATION_ROLE ( 'classification_officer' ) ;
#179 = CC_DESIGN_DATE_AND_TIME_ASSIGNMENT ( #34, #68, ( #132 ) ) ;
#180 = CARTESIAN_POINT ( 'NONE',  ( 4.996003610813200500E-016, 2.442490654175340100E-015, 5.000000000000000000 ) ) ;
#181 = CALENDAR_DATE ( 2018, 13, 12 ) ;
#182 = PERSON_AND_ORGANIZATION ( #82, #95 ) ;
#183 = COORDINATED_UNIVERSAL_TIME_OFFSET ( 2, 0, .AHEAD. ) ;
#184 = CYLINDRICAL_SURFACE ( 'NONE', #108, 12.69999999999999900 ) ;
#185 = EDGE_LOOP ( 'NONE', ( #73, #66, #212, #100, #6 ) ) ;
#186 = CC_DESIGN_PERSON_AND_ORGANIZATION_ASSIGNMENT ( #228, #210, ( #200 ) ) ;
#187 = SHAPE_DEFINITION_REPRESENTATION ( #170, #53 ) ;
#188 = DIRECTION ( 'NONE',  ( 1.000000000000000000, 0.0000000000000000000, 0.0000000000000000000 ) ) ;
#189 = CARTESIAN_POINT ( 'NONE',  ( 13.26007905807133500, 4.608490066539655300, 2.035323838849941100 ) ) ;
#190 = CYLINDRICAL_SURFACE ( 'NONE', #61, 12.69999999999999900 ) ;
#191 = ORIENTED_EDGE ( 'NONE', *, *, #139, .T. ) ;
#192 = PRODUCT ( '110-1207E UVFS pl-cx 25.4 F60', '110-1207E UVFS pl-cx 25.4 F60', '', ( #71 ) ) ;
#193 = CARTESIAN_POINT ( 'NONE',  ( 4.996003610813200500E-016, 2.442490654175340100E-015, 5.000000000000000000 ) ) ;
#194 = APPROVAL_ROLE ( '' ) ;
#195 = FACE_OUTER_BOUND ( 'NONE', #120, .T. ) ;
#196 = VERTEX_POINT ( 'NONE', #48 ) ;
#197 = EDGE_CURVE ( 'NONE', #72, #47, #54, .T. ) ;
#198 = AXIS2_PLACEMENT_3D ( 'NONE', #43, #175, #188 ) ;
#199 = LINE ( 'NONE', #19, #173 ) ;
#200 = PRODUCT_DEFINITION_FORMATION_WITH_SPECIFIED_SOURCE ( 'ANY', '', #192, .NOT_KNOWN. ) ;
#201 = CARTESIAN_POINT ( 'NONE',  ( 4.996003610813200500E-016, 2.442490654175340100E-015, 2.979077420859110000 ) ) ;
#202 = AXIS2_PLACEMENT_3D ( 'NONE', #180, #225, #158 ) ;
#203 = CARTESIAN_POINT ( 'NONE',  ( -7.690957369916758900E-015, -4.608490066539652700, -1.094479292008892600 ) ) ;
#204 = CARTESIAN_POINT ( 'NONE',  ( 11.40699994437959000, 12.84126185354288900, 5.742113457253137400 ) ) ;
#205 = CALENDAR_DATE ( 2018, 13, 12 ) ;
#206 = CARTESIAN_POINT ( 'NONE',  ( -2.341380602327612300E-015, 12.84126185354289100, 3.049696316806727900 ) ) ;
#207 = DIRECTION ( 'NONE',  ( 0.0000000000000000000, 0.0000000000000000000, 1.000000000000000000 ) ) ;
#208 = APPROVAL_STATUS ( 'not_yet_approved' ) ;
#209 =( LENGTH_UNIT ( ) NAMED_UNIT ( * ) SI_UNIT ( .MILLI., .METRE. ) );
#210 = PERSON_AND_ORGANIZATION_ROLE ( 'design_supplier' ) ;
#211 = LOCAL_TIME ( 17, 2, 7.000000000000000000, #24 ) ;
#212 = ORIENTED_EDGE ( 'NONE', *, *, #124, .F. ) ;
#213 = APPROVAL_ROLE ( '' ) ;
#214 = CC_DESIGN_SECURITY_CLASSIFICATION ( #105, ( #200 ) ) ;
#215 = FACE_OUTER_BOUND ( 'NONE', #156, .T. ) ;
#216 = FACE_OUTER_BOUND ( 'NONE', #233, .T. ) ;
#217 = COORDINATED_UNIVERSAL_TIME_OFFSET ( 2, 0, .AHEAD. ) ;
#218 = DIRECTION ( 'NONE',  ( 0.0000000000000000000, 0.0000000000000000000, 1.000000000000000000 ) ) ;
#219 = CC_DESIGN_PERSON_AND_ORGANIZATION_ASSIGNMENT ( #85, #104, ( #192 ) ) ;
#220 = VECTOR ( 'NONE', #207, 1000.000000000000000 ) ;
#221 = CARTESIAN_POINT ( 'NONE',  ( 11.40699994437958900, -12.84126185354288900, 5.742113457253134700 ) ) ;
#222 = CARTESIAN_POINT ( 'NONE',  ( -7.849086991659714100, -12.84126185354288400, 3.963459997049834500 ) ) ;
#223 = CARTESIAN_POINT ( 'NONE',  ( -12.69999999999999900, 3.997792089092478900E-015, 2.979077420859110000 ) ) ;
#224 = CARTESIAN_POINT ( 'NONE',  ( -7.849086991659703500, 12.84126185354289100, 3.963459997049839900 ) ) ;
#225 = DIRECTION ( 'NONE',  ( -0.0000000000000000000, -0.0000000000000000000, -1.000000000000000000 ) ) ;
#226 = CIRCLE ( 'NONE', #202, 12.69999999999999900 ) ;
#227 = APPROVAL_STATUS ( 'not_yet_approved' ) ;
#228 = PERSON_AND_ORGANIZATION ( #82, #95 ) ;
#229 = ORIENTED_EDGE ( 'NONE', *, *, #139, .F. ) ;
#230 = APPROVAL_PERSON_ORGANIZATION ( #50, #12, #11 ) ;
#231 = EDGE_CURVE ( 'NONE', #13, #15, #226, .T. ) ;
#232 = PERSON_AND_ORGANIZATION ( #82, #95 ) ;
#233 = EDGE_LOOP ( 'NONE', ( #150, #25 ) ) ;
#234 = CARTESIAN_POINT ( 'NONE',  ( 4.996003610813200500E-016, 2.442490654175340100E-015, 2.979077420859110000 ) ) ;
#235 = CARTESIAN_POINT ( 'NONE',  ( -11.40699994437958900, -12.84126185354288400, 5.742113457253134700 ) ) ;
ENDSEC;
END-ISO-10303-21;
