ISO-10303-21;
HEADER;
FILE_DESCRIPTION (( 'STEP AP203' ),
    '1' );
FILE_NAME ('110-1205E UVFS pl-cx 25.4 F50.STEP',
    '2018-12-13T15:02:17',
    ( '' ),
    ( '' ),
    'SwSTEP 2.0',
    'SolidWorks 2017',
    '' );
FILE_SCHEMA (( 'CONFIG_CONTROL_DESIGN' ));
ENDSEC;

DATA;
#1 = CARTESIAN_POINT ( 'NONE',  ( -13.55217472509182700, -4.781915125669439900, 2.554325215990413100 ) ) ;
#2 = EDGE_LOOP ( 'NONE', ( #84, #141, #120, #205 ) ) ;
#3 = DIRECTION ( 'NONE',  ( 0.0000000000000000000, 0.0000000000000000000, 1.000000000000000000 ) ) ;
#4 = AXIS2_PLACEMENT_3D ( 'NONE', #15, #143, #201 ) ;
#5 = CALENDAR_DATE ( 2018, 13, 12 ) ;
#6 = PERSON_AND_ORGANIZATION_ROLE ( 'creator' ) ;
#7 = APPROVAL_STATUS ( 'not_yet_approved' ) ;
#8 = APPROVAL_PERSON_ORGANIZATION ( #195, #92, #114 ) ;
#9 = CC_DESIGN_SECURITY_CLASSIFICATION ( #121, ( #96 ) ) ;
#10 = APPROVAL_DATE_TIME ( #65, #92 ) ;
#11 =( GEOMETRIC_REPRESENTATION_CONTEXT ( 3 ) GLOBAL_UNCERTAINTY_ASSIGNED_CONTEXT ( ( #136 ) ) GLOBAL_UNIT_ASSIGNED_CONTEXT ( ( #93, #176, #36 ) ) REPRESENTATION_CONTEXT ( 'NONE', 'WORKASPACE' ) );
#12 = CARTESIAN_POINT ( 'NONE',  ( 7.536501496619376200, 12.83566429660727500, 4.834965387063380000 ) ) ;
#13 = DATE_AND_TIME ( #161, #20 ) ;
#14 = LINE ( 'NONE', #108, #39 ) ;
#15 = CARTESIAN_POINT ( 'NONE',  ( -5.329070518200749800E-015, -7.105427357601000300E-015, 23.80000000000000100 ) ) ;
#16 = EDGE_CURVE ( 'NONE', #210, #215, #132, .T. ) ;
#17 = VERTEX_POINT ( 'NONE', #59 ) ;
#18 = CC_DESIGN_PERSON_AND_ORGANIZATION_ASSIGNMENT ( #166, #115, ( #121 ) ) ;
#19 = APPLICATION_CONTEXT ( 'configuration controlled 3d designs of mechanical parts and assemblies' ) ;
#20 = LOCAL_TIME ( 17, 2, 17.00000000000000000, #172 ) ;
#21 = PRODUCT_DEFINITION ( 'UNKNOWN', '', #96, #158 ) ;
#22 = CARTESIAN_POINT ( 'NONE',  ( 7.536501496619371700, -12.83566429660727500, 4.834965387063372000 ) ) ;
#23 = CIRCLE ( 'NONE', #211, 12.69999999999999900 ) ;
#24 = CARTESIAN_POINT ( 'NONE',  ( -1.040834085586084300E-014, -12.83566429660727300, 3.757901255986153100 ) ) ;
#25 = CALENDAR_DATE ( 2018, 13, 12 ) ;
#26 = FACE_OUTER_BOUND ( 'NONE', #2, .T. ) ;
#27 = CARTESIAN_POINT ( 'NONE',  ( 1.414939315374557500E-015, 4.781915125669439900, -1.400002714430773200 ) ) ;
#28 = PRODUCT_RELATED_PRODUCT_CATEGORY ( 'detail', '', ( #150 ) ) ;
#29 = DIRECTION ( 'NONE',  ( 1.000000000000000000, 0.0000000000000000000, -0.0000000000000000000 ) ) ;
#30 = MANIFOLD_SOLID_BREP ( 'Imported1', #51 ) ;
#31 = ORIENTED_EDGE ( 'NONE', *, *, #69, .T. ) ;
#32 = CARTESIAN_POINT ( 'NONE',  ( -4.834793210690898800, -4.781915125669439000, -1.400002714430774700 ) ) ;
#33 = CC_DESIGN_APPROVAL ( #92, ( #21 ) ) ;
#34 = CARTESIAN_POINT ( 'NONE',  ( 2.054901795998458500E-015, 12.70000000000000100, 3.671661767547723400 ) ) ;
#35 = ORIENTED_EDGE ( 'NONE', *, *, #16, .T. ) ;
#36 =( NAMED_UNIT ( * ) SI_UNIT ( $, .STERADIAN. ) SOLID_ANGLE_UNIT ( ) );
#37 = EDGE_LOOP ( 'NONE', ( #170, #31 ) ) ;
#38 = AXIS2_PLACEMENT_3D ( 'NONE', #129, #3, #174 ) ;
#39 = VECTOR ( 'NONE', #68, 1000.000000000000000 ) ;
#40 = PRODUCT_DEFINITION_SHAPE ( 'NONE', 'NONE',  #21 ) ;
#41 = CIRCLE ( 'NONE', #130, 12.69999999999999900 ) ;
#42 = CARTESIAN_POINT ( 'NONE',  ( 4.996003610813200500E-016, -12.69999999999999800, 3.671661767547716300 ) ) ;
#43 = APPROVAL ( #73, 'UNSPECIFIED' ) ;
#44 = CYLINDRICAL_SURFACE ( 'NONE', #55, 12.69999999999999900 ) ;
#45 = EDGE_CURVE ( 'NONE', #215, #17, #90, .T. ) ;
#46 = CARTESIAN_POINT ( 'NONE',  ( -1.040834085586084300E-014, -4.781915125669439000, -1.400002714430775400 ) ) ;
#47 = FACE_OUTER_BOUND ( 'NONE', #137, .T. ) ;
#48 = CARTESIAN_POINT ( 'NONE',  ( -7.536501496619380600, -12.83566429660727500, 4.834965387063372000 ) ) ;
#49 = LOCAL_TIME ( 17, 2, 17.00000000000000000, #99 ) ;
#50 = PERSON_AND_ORGANIZATION_ROLE ( 'design_owner' ) ;
#51 = CLOSED_SHELL ( 'NONE', ( #58, #151, #138, #97, #98 ) ) ;
#52 = MECHANICAL_CONTEXT ( 'NONE', #19, 'mechanical' ) ;
#53 = EDGE_CURVE ( 'NONE', #88, #210, #112, .T. ) ;
#54 = APPROVAL_DATE_TIME ( #147, #43 ) ;
#55 = AXIS2_PLACEMENT_3D ( 'NONE', #61, #183, #155 ) ;
#56 = ORIENTED_EDGE ( 'NONE', *, *, #69, .F. ) ;
#57 = CARTESIAN_POINT ( 'NONE',  ( 2.054901795998458500E-015, 12.70000000000000100, 3.671661767547723400 ) ) ;
#58 = ADVANCED_FACE ( 'NONE', ( #127 ), #177, .T. ) ;
#59 = CARTESIAN_POINT ( 'NONE',  ( 4.996003610813199500E-016, -12.69999999999999800, 5.999999999999996400 ) ) ;
#60 = CC_DESIGN_PERSON_AND_ORGANIZATION_ASSIGNMENT ( #186, #6, ( #21 ) ) ;
#61 = CARTESIAN_POINT ( 'NONE',  ( 4.996003610813200500E-016, 2.442490654175340100E-015, 3.671661767547719900 ) ) ;
#62 = APPROVAL_PERSON_ORGANIZATION ( #131, #123, #71 ) ;
#63 = PERSON_AND_ORGANIZATION ( #140, #144 ) ;
#64 = CARTESIAN_POINT ( 'NONE',  ( -10.77833312616587100, -12.83566429660727500, 6.902862458800989000 ) ) ;
#65 = DATE_AND_TIME ( #75, #67 ) ;
#66 = CARTESIAN_POINT ( 'NONE',  ( 4.996003610813199500E-016, 1.776356839400246700E-015, 6.000000000000000000 ) ) ;
#67 = LOCAL_TIME ( 17, 2, 17.00000000000000000, #198 ) ;
#68 = DIRECTION ( 'NONE',  ( -5.502304240977850300E-032, -2.860983878933689900E-016, 1.000000000000000000 ) ) ;
#69 = EDGE_CURVE ( 'NONE', #88, #210, #103, .T. ) ;
#70 = PERSON_AND_ORGANIZATION_ROLE ( 'design_supplier' ) ;
#71 = APPROVAL_ROLE ( '' ) ;
#72 = APPLICATION_CONTEXT ( 'configuration controlled 3d designs of mechanical parts and assemblies' ) ;
#73 = APPROVAL_STATUS ( 'not_yet_approved' ) ;
#74 = CC_DESIGN_DATE_AND_TIME_ASSIGNMENT ( #148, #116, ( #121 ) ) ;
#75 = CALENDAR_DATE ( 2018, 13, 12 ) ;
#76 = FACE_OUTER_BOUND ( 'NONE', #78, .T. ) ;
#77 = EDGE_CURVE ( 'NONE', #210, #88, #41, .T. ) ;
#78 = EDGE_LOOP ( 'NONE', ( #56, #167 ) ) ;
#79 = CARTESIAN_POINT ( 'NONE',  ( 3.458410306303859400E-017, -12.83566429660727300, 3.757901255986153500 ) ) ;
#80 = CARTESIAN_POINT ( 'NONE',  ( 3.458410306304090500E-017, 12.83566429660727300, 3.757901255986160200 ) ) ;
#81 = VECTOR ( 'NONE', #181, 1000.000000000000000 ) ;
#82 = CARTESIAN_POINT ( 'NONE',  ( -4.834793210690898800, 4.781915125669443400, -1.400002714430773800 ) ) ;
#83 = CARTESIAN_POINT ( 'NONE',  ( 9.476046425968487300, -4.781915125669439000, -0.04575237501117231800 ) ) ;
#84 = ORIENTED_EDGE ( 'NONE', *, *, #16, .F. ) ;
#85 = DIRECTION ( 'NONE',  ( 0.0000000000000000000, -1.000000000000000000, -2.731847993664263200E-016 ) ) ;
#86 = DIRECTION ( 'NONE',  ( 0.0000000000000000000, -1.000000000000000000, -2.731847993664263200E-016 ) ) ;
#87 = CC_DESIGN_APPROVAL ( #123, ( #121 ) ) ;
#88 = VERTEX_POINT ( 'NONE', #42 ) ;
#89 = DIRECTION ( 'NONE',  ( 0.0000000000000000000, -1.000000000000000000, -2.731847993664263200E-016 ) ) ;
#90 = CIRCLE ( 'NONE', #117, 12.69999999999999900 ) ;
#91 = DATE_TIME_ROLE ( 'creation_date' ) ;
#92 = APPROVAL ( #206, 'UNSPECIFIED' ) ;
#93 =( LENGTH_UNIT ( ) NAMED_UNIT ( * ) SI_UNIT ( .MILLI., .METRE. ) );
#94 = PERSON_AND_ORGANIZATION_ROLE ( 'creator' ) ;
#95 = EDGE_LOOP ( 'NONE', ( #187, #173 ) ) ;
#96 = PRODUCT_DEFINITION_FORMATION_WITH_SPECIFIED_SOURCE ( 'ANY', '', #150, .NOT_KNOWN. ) ;
#97 = ADVANCED_FACE ( 'NONE', ( #26 ), #44, .T. ) ;
#98 = ADVANCED_FACE ( 'NONE', ( #208 ), #124, .T. ) ;
#99 = COORDINATED_UNIVERSAL_TIME_OFFSET ( 2, 0, .AHEAD. ) ;
#100 = AXIS2_PLACEMENT_3D ( 'NONE', #180, #163, #197 ) ;
#101 = CARTESIAN_POINT ( 'NONE',  ( -7.536501496619383300, 12.83566429660727500, 4.834965387063378200 ) ) ;
#102 = CARTESIAN_POINT ( 'NONE',  ( -10.77833312616587400, 12.83566429660727200, 6.902862458800996100 ) ) ;
#103 = CIRCLE ( 'NONE', #4, 23.80000000000000100 ) ;
#104 = CARTESIAN_POINT ( 'NONE',  ( 3.845213988015370200, 12.83566429660727500, 3.757901255986161100 ) ) ;
#105 = CARTESIAN_POINT ( 'NONE',  ( -3.845213988015379100, -12.83566429660727500, 3.757901255986154000 ) ) ;
#106 = ADVANCED_BREP_SHAPE_REPRESENTATION ( '110-1205E UVFS pl-cx 25.4 F50', ( #30, #38 ), #11 ) ;
#107 = LOCAL_TIME ( 17, 2, 17.00000000000000000, #207 ) ;
#108 = CARTESIAN_POINT ( 'NONE',  ( 4.996003610813200500E-016, -12.69999999999999800, 3.671661767547716300 ) ) ;
#109 = CARTESIAN_POINT ( 'NONE',  ( 4.996003610813200500E-016, 2.442490654175340100E-015, 3.671661767547719900 ) ) ;
#110 = CC_DESIGN_APPROVAL ( #43, ( #96 ) ) ;
#111 = CALENDAR_DATE ( 2018, 13, 12 ) ;
#112 = CIRCLE ( 'NONE', #100, 12.69999999999999900 ) ;
#113 = SECURITY_CLASSIFICATION_LEVEL ( 'unclassified' ) ;
#114 = APPROVAL_ROLE ( '' ) ;
#115 = PERSON_AND_ORGANIZATION_ROLE ( 'classification_officer' ) ;
#116 = DATE_TIME_ROLE ( 'classification_date' ) ;
#117 = AXIS2_PLACEMENT_3D ( 'NONE', #139, #165, #199 ) ;
#118 = LOCAL_TIME ( 17, 2, 17.00000000000000000, #153 ) ;
#119 = SHAPE_DEFINITION_REPRESENTATION ( #40, #106 ) ;
#120 = ORIENTED_EDGE ( 'NONE', *, *, #157, .T. ) ;
#121 = SECURITY_CLASSIFICATION ( '', '', #113 ) ;
#122 = CARTESIAN_POINT ( 'NONE',  ( -3.845213988015376800, 12.83566429660727500, 3.757901255986159300 ) ) ;
#123 = APPROVAL ( #7, 'UNSPECIFIED' ) ;
#124 = PLANE ( 'NONE',  #152 ) ;
#125 = DIRECTION ( 'NONE',  ( 5.502304240977850300E-032, 2.860983878933689900E-016, -1.000000000000000000 ) ) ;
#126 = CARTESIAN_POINT ( 'NONE',  ( -9.476046425968490900, -4.781915125669439000, -0.04575237501117275500 ) ) ;
#127 = FACE_OUTER_BOUND ( 'NONE', #37, .T. ) ;
#128 =( BOUNDED_SURFACE ( )  B_SPLINE_SURFACE ( 3, 3, ( 
 ( #64, #48, #105, #24 ),
 ( #1, #126, #32, #46 ),
 ( #184, #146, #82, #154 ),
 ( #102, #101, #122, #213 ) ),
 .UNSPECIFIED., .F., .F., .T. ) 
 B_SPLINE_SURFACE_WITH_KNOTS ( ( 4, 4 ),
 ( 4, 4 ),
 ( 0.0000000000000000000, 1.000000000000000000 ),
 ( 0.0000000000000000000, 1.000000000000000000 ),
 .UNSPECIFIED. ) 
 GEOMETRIC_REPRESENTATION_ITEM ( )  RATIONAL_B_SPLINE_SURFACE ( (
 ( 1.000000000000000000, 0.9733128888897350000, 0.9733128888897350000, 1.000000000000000000),
 ( 0.8947366594961861900, 0.8708587228497841600, 0.8708587228497841600, 0.8947366594961861900),
 ( 0.8947366594961861900, 0.8708587228497841600, 0.8708587228497841600, 0.8947366594961861900),
 ( 1.000000000000000000, 0.9733128888897350000, 0.9733128888897350000, 1.000000000000000000) ) ) 
 REPRESENTATION_ITEM ( '' )  SURFACE ( )  );
#129 = CARTESIAN_POINT ( 'NONE',  ( 0.0000000000000000000, 0.0000000000000000000, 0.0000000000000000000 ) ) ;
#130 = AXIS2_PLACEMENT_3D ( 'NONE', #168, #125, #85 ) ;
#131 = PERSON_AND_ORGANIZATION ( #140, #144 ) ;
#132 = LINE ( 'NONE', #57, #81 ) ;
#133 = ORIENTED_EDGE ( 'NONE', *, *, #45, .T. ) ;
#134 = ORIENTED_EDGE ( 'NONE', *, *, #77, .F. ) ;
#135 = CC_DESIGN_DATE_AND_TIME_ASSIGNMENT ( #13, #91, ( #21 ) ) ;
#136 = UNCERTAINTY_MEASURE_WITH_UNIT (LENGTH_MEASURE( 1.000000000000000100E-005 ), #93, 'distance_accuracy_value', 'NONE');
#137 = EDGE_LOOP ( 'NONE', ( #134, #35, #133, #164 ) ) ;
#138 = ADVANCED_FACE ( 'NONE', ( #76 ), #128, .T. ) ;
#139 = CARTESIAN_POINT ( 'NONE',  ( 4.996003610813199500E-016, 1.776356839400246700E-015, 6.000000000000000000 ) ) ;
#140 = PERSON ( 'UNSPECIFIED', 'UNSPECIFIED', 'UNSPECIFIED', ('UNSPECIFIED'), ('UNSPECIFIED'), ('UNSPECIFIED') ) ;
#141 = ORIENTED_EDGE ( 'NONE', *, *, #53, .F. ) ;
#142 = CARTESIAN_POINT ( 'NONE',  ( 9.476046425968487300, 4.781915125669439900, -0.04575237501117102000 ) ) ;
#143 = DIRECTION ( 'NONE',  ( 1.000000000000000000, 0.0000000000000000000, 0.0000000000000000000 ) ) ;
#144 = ORGANIZATION ( 'UNSPECIFIED', 'UNSPECIFIED', '' ) ;
#145 = DIRECTION ( 'NONE',  ( 0.0000000000000000000, 0.0000000000000000000, 1.000000000000000000 ) ) ;
#146 = CARTESIAN_POINT ( 'NONE',  ( -9.476046425968490900, 4.781915125669443400, -0.04575237501117275500 ) ) ;
#147 = DATE_AND_TIME ( #5, #118 ) ;
#148 = DATE_AND_TIME ( #111, #107 ) ;
#149 = APPLICATION_PROTOCOL_DEFINITION ( 'international standard', 'config_control_design', 1994, #19 ) ;
#150 = PRODUCT ( '110-1205E UVFS pl-cx 25.4 F50', '110-1205E UVFS pl-cx 25.4 F50', '', ( #52 ) ) ;
#151 = ADVANCED_FACE ( 'NONE', ( #47 ), #162, .T. ) ;
#152 = AXIS2_PLACEMENT_3D ( 'NONE', #188, #145, #29 ) ;
#153 = COORDINATED_UNIVERSAL_TIME_OFFSET ( 2, 0, .AHEAD. ) ;
#154 = CARTESIAN_POINT ( 'NONE',  ( -8.673617379884035500E-015, 4.781915125669441700, -1.400002714430774500 ) ) ;
#155 = DIRECTION ( 'NONE',  ( 0.0000000000000000000, -1.000000000000000000, -2.731847993664263200E-016 ) ) ;
#156 = APPROVAL_DATE_TIME ( #204, #123 ) ;
#157 = EDGE_CURVE ( 'NONE', #88, #17, #14, .T. ) ;
#158 = DESIGN_CONTEXT ( 'detailed design', #72, 'design' ) ;
#159 = CARTESIAN_POINT ( 'NONE',  ( 13.55217472509181700, 4.781915125669439000, 2.554325215990414800 ) ) ;
#160 = CARTESIAN_POINT ( 'NONE',  ( 1.414939315374556100E-015, -4.781915125669438100, -1.400002714430774100 ) ) ;
#161 = CALENDAR_DATE ( 2018, 13, 12 ) ;
#162 = CYLINDRICAL_SURFACE ( 'NONE', #203, 12.69999999999999900 ) ;
#163 = DIRECTION ( 'NONE',  ( 5.502304240977850300E-032, 2.860983878933689900E-016, -1.000000000000000000 ) ) ;
#164 = ORIENTED_EDGE ( 'NONE', *, *, #157, .F. ) ;
#165 = DIRECTION ( 'NONE',  ( 5.502304240977850300E-032, 2.860983878933689900E-016, -1.000000000000000000 ) ) ;
#166 = PERSON_AND_ORGANIZATION ( #140, #144 ) ;
#167 = ORIENTED_EDGE ( 'NONE', *, *, #53, .T. ) ;
#168 = CARTESIAN_POINT ( 'NONE',  ( 4.996003610813200500E-016, 2.442490654175340100E-015, 3.671661767547719900 ) ) ;
#169 = CARTESIAN_POINT ( 'NONE',  ( 13.55217472509181700, -4.781915125669439900, 2.554325215990413500 ) ) ;
#170 = ORIENTED_EDGE ( 'NONE', *, *, #77, .T. ) ;
#171 = DIRECTION ( 'NONE',  ( -5.502304240977850300E-032, -2.860983878933689900E-016, 1.000000000000000000 ) ) ;
#172 = COORDINATED_UNIVERSAL_TIME_OFFSET ( 2, 0, .AHEAD. ) ;
#173 = ORIENTED_EDGE ( 'NONE', *, *, #45, .F. ) ;
#174 = DIRECTION ( 'NONE',  ( 1.000000000000000000, 0.0000000000000000000, 0.0000000000000000000 ) ) ;
#175 = EDGE_CURVE ( 'NONE', #17, #215, #23, .T. ) ;
#176 =( NAMED_UNIT ( * ) PLANE_ANGLE_UNIT ( ) SI_UNIT ( $, .RADIAN. ) );
#177 =( BOUNDED_SURFACE ( )  B_SPLINE_SURFACE ( 3, 3, ( 
 ( #79, #212, #22, #209 ),
 ( #160, #182, #83, #169 ),
 ( #27, #200, #142, #159 ),
 ( #80, #104, #12, #202 ) ),
 .UNSPECIFIED., .F., .F., .F. ) 
 B_SPLINE_SURFACE_WITH_KNOTS ( ( 4, 4 ),
 ( 4, 4 ),
 ( 0.0000000000000000000, 1.000000000000000000 ),
 ( 0.0000000000000000000, 1.000000000000000000 ),
 .UNSPECIFIED. ) 
 GEOMETRIC_REPRESENTATION_ITEM ( )  RATIONAL_B_SPLINE_SURFACE ( (
 ( 1.000000000000000000, 0.9733128888897350000, 0.9733128888897350000, 1.000000000000000000),
 ( 0.8947366594961861900, 0.8708587228497841600, 0.8708587228497841600, 0.8947366594961861900),
 ( 0.8947366594961861900, 0.8708587228497841600, 0.8708587228497841600, 0.8947366594961861900),
 ( 1.000000000000000000, 0.9733128888897350000, 0.9733128888897350000, 1.000000000000000000) ) ) 
 REPRESENTATION_ITEM ( '' )  SURFACE ( )  );
#178 = APPLICATION_PROTOCOL_DEFINITION ( 'international standard', 'config_control_design', 1994, #72 ) ;
#179 = PERSON_AND_ORGANIZATION ( #140, #144 ) ;
#180 = CARTESIAN_POINT ( 'NONE',  ( 4.996003610813200500E-016, 2.442490654175340100E-015, 3.671661767547719900 ) ) ;
#181 = DIRECTION ( 'NONE',  ( -5.502304240977850300E-032, -2.860983878933689900E-016, 1.000000000000000000 ) ) ;
#182 = CARTESIAN_POINT ( 'NONE',  ( 4.834793210690888200, -4.781915125669438100, -1.400002714430773200 ) ) ;
#183 = DIRECTION ( 'NONE',  ( -5.502304240977850300E-032, -2.860983878933689900E-016, 1.000000000000000000 ) ) ;
#184 = CARTESIAN_POINT ( 'NONE',  ( -13.55217472509182900, 4.781915125669439900, 2.554325215990413500 ) ) ;
#185 = CC_DESIGN_PERSON_AND_ORGANIZATION_ASSIGNMENT ( #63, #50, ( #150 ) ) ;
#186 = PERSON_AND_ORGANIZATION ( #140, #144 ) ;
#187 = ORIENTED_EDGE ( 'NONE', *, *, #175, .F. ) ;
#188 = CARTESIAN_POINT ( 'NONE',  ( 0.0000000000000000000, 26.11199999999999800, 6.000000000000000000 ) ) ;
#189 = CARTESIAN_POINT ( 'NONE',  ( 2.054901795998458500E-015, 12.70000000000000100, 6.000000000000003600 ) ) ;
#190 = PERSON_AND_ORGANIZATION ( #140, #144 ) ;
#191 = DIRECTION ( 'NONE',  ( 5.502304240977850300E-032, 2.860983878933689900E-016, -1.000000000000000000 ) ) ;
#192 = APPROVAL_PERSON_ORGANIZATION ( #190, #43, #193 ) ;
#193 = APPROVAL_ROLE ( '' ) ;
#194 = PERSON_AND_ORGANIZATION ( #140, #144 ) ;
#195 = PERSON_AND_ORGANIZATION ( #140, #144 ) ;
#196 = CC_DESIGN_PERSON_AND_ORGANIZATION_ASSIGNMENT ( #179, #70, ( #96 ) ) ;
#197 = DIRECTION ( 'NONE',  ( 0.0000000000000000000, -1.000000000000000000, -2.731847993664263200E-016 ) ) ;
#198 = COORDINATED_UNIVERSAL_TIME_OFFSET ( 2, 0, .AHEAD. ) ;
#199 = DIRECTION ( 'NONE',  ( 0.0000000000000000000, -1.000000000000000000, -2.731847993664263200E-016 ) ) ;
#200 = CARTESIAN_POINT ( 'NONE',  ( 4.834793210690890000, 4.781915125669440800, -1.400002714430771800 ) ) ;
#201 = DIRECTION ( 'NONE',  ( 0.0000000000000000000, -1.000000000000000000, -5.831003280594309600E-016 ) ) ;
#202 = CARTESIAN_POINT ( 'NONE',  ( 10.77833312616586500, 12.83566429660727200, 6.902862458800997900 ) ) ;
#203 = AXIS2_PLACEMENT_3D ( 'NONE', #109, #171, #89 ) ;
#204 = DATE_AND_TIME ( #25, #49 ) ;
#205 = ORIENTED_EDGE ( 'NONE', *, *, #175, .T. ) ;
#206 = APPROVAL_STATUS ( 'not_yet_approved' ) ;
#207 = COORDINATED_UNIVERSAL_TIME_OFFSET ( 2, 0, .AHEAD. ) ;
#208 = FACE_OUTER_BOUND ( 'NONE', #95, .T. ) ;
#209 = CARTESIAN_POINT ( 'NONE',  ( 10.77833312616586000, -12.83566429660727500, 6.902862458800989000 ) ) ;
#210 = VERTEX_POINT ( 'NONE', #34 ) ;
#211 = AXIS2_PLACEMENT_3D ( 'NONE', #66, #191, #86 ) ;
#212 = CARTESIAN_POINT ( 'NONE',  ( 3.845213988015368800, -12.83566429660727500, 3.757901255986154400 ) ) ;
#213 = CARTESIAN_POINT ( 'NONE',  ( -6.938893903907228400E-015, 12.83566429660727300, 3.757901255986158900 ) ) ;
#214 = CC_DESIGN_PERSON_AND_ORGANIZATION_ASSIGNMENT ( #194, #94, ( #96 ) ) ;
#215 = VERTEX_POINT ( 'NONE', #189 ) ;
ENDSEC;
END-ISO-10303-21;
