ISO-10303-21;
HEADER;
FILE_DESCRIPTION (( 'STEP AP203' ),
    '1' );
FILE_NAME ('110-1204E UVFS pl-cx 25.4 F40.STEP',
    '2019-10-01T07:18:52',
    ( '' ),
    ( '' ),
    'SwSTEP 2.0',
    'SolidWorks 2019',
    '' );
FILE_SCHEMA (( 'CONFIG_CONTROL_DESIGN' ));
ENDSEC;

DATA;
#1 = CARTESIAN_POINT ( 'NONE',  ( -12.69999999999999929, 1.555301434917139813E-15, 4.854387570499470783 ) ) ;
#2 = ORIENTED_EDGE ( 'NONE', *, *, #59, .T. ) ;
#3 = ORIENTED_EDGE ( 'NONE', *, *, #127, .F. ) ;
#4 = CARTESIAN_POINT ( 'NONE',  ( 3.552713678800499352E-15, 1.065814103640149963E-14, 19.04000000000000270 ) ) ;
#5 = EDGE_CURVE ( 'NONE', #46, #150, #70, .T. ) ;
#6 =( NAMED_UNIT ( * ) PLANE_ANGLE_UNIT ( ) SI_UNIT ( $, .RADIAN. ) );
#7 = CARTESIAN_POINT ( 'NONE',  ( 12.69999999999999929, 0.0000000000000000000, 4.854387570499470783 ) ) ;
#8 = CARTESIAN_POINT ( 'NONE',  ( 12.70000000000000107, -12.70000000000000107, 7.000000000000006217 ) ) ;
#9 = ORIENTED_EDGE ( 'NONE', *, *, #59, .F. ) ;
#10 = MECHANICAL_CONTEXT ( 'NONE', #37, 'mechanical' ) ;
#11 = CC_DESIGN_SECURITY_CLASSIFICATION ( #175, ( #162 ) ) ;
#12 = PERSON_AND_ORGANIZATION ( #117, #99 ) ;
#13 = CARTESIAN_POINT ( 'NONE',  ( 12.70000000000000107, 12.70000000000000107, 7.000000000000006217 ) ) ;
#14 = DIRECTION ( 'NONE',  ( 1.000000000000000000, 0.0000000000000000000, 0.0000000000000000000 ) ) ;
#15 = DIRECTION ( 'NONE',  ( 1.000000000000000000, -1.398706172756100243E-16, 0.0000000000000000000 ) ) ;
#16 = CYLINDRICAL_SURFACE ( 'NONE', #22, 12.69999999999999929 ) ;
#17 = CC_DESIGN_PERSON_AND_ORGANIZATION_ASSIGNMENT ( #12, #114, ( #162 ) ) ;
#18 = SPHERICAL_SURFACE ( 'NONE', #138, 19.04000000000000270 ) ;
#19 = FACE_OUTER_BOUND ( 'NONE', #85, .T. ) ;
#20 = COORDINATED_UNIVERSAL_TIME_OFFSET ( 2, 0, .AHEAD. ) ;
#21 = LOCAL_TIME ( 10, 18, 52.00000000000000000, #163 ) ;
#22 = AXIS2_PLACEMENT_3D ( 'NONE', #139, #71, #155 ) ;
#23 = APPROVAL_STATUS ( 'not_yet_approved' ) ;
#24 = ORIENTED_EDGE ( 'NONE', *, *, #127, .T. ) ;
#25 = DATE_AND_TIME ( #144, #141 ) ;
#26 = PERSON_AND_ORGANIZATION_ROLE ( 'creator' ) ;
#27 = EDGE_LOOP ( 'NONE', ( #134, #146 ) ) ;
#28 = EDGE_LOOP ( 'NONE', ( #24, #122, #43, #164 ) ) ;
#29 = CARTESIAN_POINT ( 'NONE',  ( 12.70000000000000107, -12.70000000000000107, 4.854387570499467230 ) ) ;
#30 = CARTESIAN_POINT ( 'NONE',  ( -12.69999999999999929, 5.108015113717634629E-15, 4.854387570499470783 ) ) ;
#31 = CC_DESIGN_PERSON_AND_ORGANIZATION_ASSIGNMENT ( #178, #53, ( #175 ) ) ;
#32 = VECTOR ( 'NONE', #33, 1000.000000000000000 ) ;
#33 = DIRECTION ( 'NONE',  ( 0.0000000000000000000, 0.0000000000000000000, 1.000000000000000000 ) ) ;
#34 = CYLINDRICAL_SURFACE ( 'NONE', #147, 12.69999999999999929 ) ;
#35 = PERSON_AND_ORGANIZATION_ROLE ( 'design_owner' ) ;
#36 = CC_DESIGN_PERSON_AND_ORGANIZATION_ASSIGNMENT ( #128, #158, ( #162 ) ) ;
#37 = APPLICATION_CONTEXT ( 'configuration controlled 3d designs of mechanical parts and assemblies' ) ;
#38 = PERSON_AND_ORGANIZATION ( #117, #99 ) ;
#39 =( GEOMETRIC_REPRESENTATION_CONTEXT ( 3 ) GLOBAL_UNCERTAINTY_ASSIGNED_CONTEXT ( ( #109 ) ) GLOBAL_UNIT_ASSIGNED_CONTEXT ( ( #136, #6, #172 ) ) REPRESENTATION_CONTEXT ( 'NONE', 'WORKASPACE' ) );
#40 = CARTESIAN_POINT ( 'NONE',  ( -12.69999999999986962, 12.70000000000000284, 7.000000000000005329 ) ) ;
#41 = VERTEX_POINT ( 'NONE', #1 ) ;
#42 = APPROVAL_DATE_TIME ( #67, #167 ) ;
#43 = ORIENTED_EDGE ( 'NONE', *, *, #5, .F. ) ;
#44 = APPROVAL_DATE_TIME ( #104, #165 ) ;
#45 = CARTESIAN_POINT ( 'NONE',  ( 12.69999999999999929, 0.0000000000000000000, 7.000000000000000000 ) ) ;
#46 = VERTEX_POINT ( 'NONE', #57 ) ;
#47 = DIRECTION ( 'NONE',  ( 0.0000000000000000000, 0.0000000000000000000, 1.000000000000000000 ) ) ;
#48 = LINE ( 'NONE', #121, #161 ) ;
#49 = LINE ( 'NONE', #30, #32 ) ;
#50 = DIRECTION ( 'NONE',  ( 0.0000000000000000000, 0.0000000000000000000, -1.000000000000000000 ) ) ;
#51 =( BOUNDED_CURVE ( )  B_SPLINE_CURVE ( 2, ( #100, #101, #137, #169, #60 ),
 .UNSPECIFIED., .F., .F. ) 
 B_SPLINE_CURVE_WITH_KNOTS ( ( 3, 2, 3 ),
 ( 0.0000000000000000000, 1.570796326794894116, 3.141592653589778905 ),
 .UNSPECIFIED. ) 
 CURVE ( )  GEOMETRIC_REPRESENTATION_ITEM ( )  RATIONAL_B_SPLINE_CURVE ( ( 1.000000000000000000, 0.7071067811865480168, 1.000000000000000000, 0.7071067811865501263, 0.9999999999999978906 ) ) 
 REPRESENTATION_ITEM ( '' )  );
#52 = PRODUCT_DEFINITION ( 'UNKNOWN', '', #162, #176 ) ;
#53 = PERSON_AND_ORGANIZATION_ROLE ( 'classification_officer' ) ;
#54 = APPROVAL_STATUS ( 'not_yet_approved' ) ;
#55 = DATE_AND_TIME ( #84, #110 ) ;
#56 = COORDINATED_UNIVERSAL_TIME_OFFSET ( 2, 0, .AHEAD. ) ;
#57 = CARTESIAN_POINT ( 'NONE',  ( 12.69999999999999929, 0.0000000000000000000, 7.000000000000000000 ) ) ;
#58 = PRODUCT ( '110-1204E UVFS pl-cx 25.4 F40', '110-1204E UVFS pl-cx 25.4 F40', '', ( #10 ) ) ;
#59 = EDGE_CURVE ( 'NONE', #41, #69, #142, .T. ) ;
#60 = CARTESIAN_POINT ( 'NONE',  ( -12.69999999999999929, 1.555301434917139813E-15, 4.854387570499470783 ) ) ;
#61 = EDGE_CURVE ( 'NONE', #150, #46, #118, .T. ) ;
#62 = AXIS2_PLACEMENT_3D ( 'NONE', #154, #47, #14 ) ;
#63 = LOCAL_TIME ( 10, 18, 52.00000000000000000, #56 ) ;
#64 = DIRECTION ( 'NONE',  ( 1.000000000000000000, 0.0000000000000000000, 0.0000000000000000000 ) ) ;
#65 = PERSON_AND_ORGANIZATION ( #117, #99 ) ;
#66 = CALENDAR_DATE ( 2019, 1, 10 ) ;
#67 = DATE_AND_TIME ( #77, #171 ) ;
#68 = ADVANCED_FACE ( 'NONE', ( #74 ), #18, .T. ) ;
#69 = VERTEX_POINT ( 'NONE', #88 ) ;
#70 =( BOUNDED_CURVE ( )  B_SPLINE_CURVE ( 2, ( #45, #13, #116, #40, #179 ),
 .UNSPECIFIED., .F., .T. ) 
 B_SPLINE_CURVE_WITH_KNOTS ( ( 3, 2, 3 ),
 ( 0.0000000000000000000, 1.570796326794894116, 3.141592653589778905 ),
 .UNSPECIFIED. ) 
 CURVE ( )  GEOMETRIC_REPRESENTATION_ITEM ( )  RATIONAL_B_SPLINE_CURVE ( ( 1.000000000000000000, 0.7071067811865480168, 1.000000000000000000, 0.7071067811865501263, 0.9999999999999978906 ) ) 
 REPRESENTATION_ITEM ( '' )  );
#71 = DIRECTION ( 'NONE',  ( 0.0000000000000000000, 0.0000000000000000000, 1.000000000000000000 ) ) ;
#72 = CC_DESIGN_APPROVAL ( #92, ( #162 ) ) ;
#73 = CARTESIAN_POINT ( 'NONE',  ( -2.332952152375710015E-15, -12.69999999999999929, 7.000000000000000000 ) ) ;
#74 = FACE_OUTER_BOUND ( 'NONE', #97, .T. ) ;
#75 = CC_DESIGN_PERSON_AND_ORGANIZATION_ASSIGNMENT ( #79, #35, ( #58 ) ) ;
#76 = CARTESIAN_POINT ( 'NONE',  ( 4.996003610813200488E-16, 1.776356839400249676E-15, 4.854387570499470783 ) ) ;
#77 = CALENDAR_DATE ( 2019, 1, 10 ) ;
#78 = MANIFOLD_SOLID_BREP ( '110-1204E.STP', #108 ) ;
#79 = PERSON_AND_ORGANIZATION ( #117, #99 ) ;
#80 = CARTESIAN_POINT ( 'NONE',  ( -12.69999999999999929, 1.555301434917139813E-15, 4.854387570499470783 ) ) ;
#81 = CC_DESIGN_APPROVAL ( #167, ( #52 ) ) ;
#82 = PERSON_AND_ORGANIZATION ( #117, #99 ) ;
#83 = PRODUCT_RELATED_PRODUCT_CATEGORY ( 'detail', '', ( #58 ) ) ;
#84 = CALENDAR_DATE ( 2019, 1, 10 ) ;
#85 = EDGE_LOOP ( 'NONE', ( #132, #2, #173, #159 ) ) ;
#86 = DIRECTION ( 'NONE',  ( 0.0000000000000000000, 0.0000000000000000000, 1.000000000000000000 ) ) ;
#87 = CARTESIAN_POINT ( 'NONE',  ( -12.70000000000013252, -12.69999999999999929, 7.000000000000006217 ) ) ;
#88 = CARTESIAN_POINT ( 'NONE',  ( 12.69999999999999929, 0.0000000000000000000, 4.854387570499470783 ) ) ;
#89 = APPROVAL_PERSON_ORGANIZATION ( #38, #167, #140 ) ;
#90 = APPLICATION_CONTEXT ( 'configuration controlled 3d designs of mechanical parts and assemblies' ) ;
#91 = APPROVAL_PERSON_ORGANIZATION ( #115, #92, #148 ) ;
#92 = APPROVAL ( #54, 'UNSPECIFIED' ) ;
#93 = APPROVAL_PERSON_ORGANIZATION ( #82, #165, #133 ) ;
#94 = ADVANCED_FACE ( 'NONE', ( #170 ), #135, .T. ) ;
#95 = CALENDAR_DATE ( 2019, 1, 10 ) ;
#96 = DATE_AND_TIME ( #66, #21 ) ;
#97 = EDGE_LOOP ( 'NONE', ( #3, #9 ) ) ;
#98 = FACE_OUTER_BOUND ( 'NONE', #28, .T. ) ;
#99 = ORGANIZATION ( 'UNSPECIFIED', 'UNSPECIFIED', '' ) ;
#100 = CARTESIAN_POINT ( 'NONE',  ( 12.69999999999999929, 0.0000000000000000000, 4.854387570499470783 ) ) ;
#101 = CARTESIAN_POINT ( 'NONE',  ( 12.70000000000000107, 12.70000000000000107, 4.854387570499467230 ) ) ;
#102 = SHAPE_DEFINITION_REPRESENTATION ( #105, #151 ) ;
#103 = COORDINATED_UNIVERSAL_TIME_OFFSET ( 2, 0, .AHEAD. ) ;
#104 = DATE_AND_TIME ( #95, #63 ) ;
#105 = PRODUCT_DEFINITION_SHAPE ( 'NONE', 'NONE',  #52 ) ;
#106 = CC_DESIGN_DATE_AND_TIME_ASSIGNMENT ( #96, #177, ( #52 ) ) ;
#107 = CARTESIAN_POINT ( 'NONE',  ( -12.69999999999999929, 1.555301434917139813E-15, 7.000000000000000000 ) ) ;
#108 = CLOSED_SHELL ( 'NONE', ( #130, #68, #94, #145 ) ) ;
#109 = UNCERTAINTY_MEASURE_WITH_UNIT (LENGTH_MEASURE( 1.000000000000000082E-05 ), #136, 'distance_accuracy_value', 'NONE');
#110 = LOCAL_TIME ( 10, 18, 52.00000000000000000, #103 ) ;
#111 = APPLICATION_PROTOCOL_DEFINITION ( 'international standard', 'config_control_design', 1994, #37 ) ;
#112 = EDGE_CURVE ( 'NONE', #69, #46, #48, .T. ) ;
#113 = SECURITY_CLASSIFICATION_LEVEL ( 'unclassified' ) ;
#114 = PERSON_AND_ORGANIZATION_ROLE ( 'creator' ) ;
#115 = PERSON_AND_ORGANIZATION ( #117, #99 ) ;
#116 = CARTESIAN_POINT ( 'NONE',  ( 7.776507174585690191E-16, 12.69999999999999929, 7.000000000000000000 ) ) ;
#117 = PERSON ( 'UNSPECIFIED', 'UNSPECIFIED', 'UNSPECIFIED', ('UNSPECIFIED'), ('UNSPECIFIED'), ('UNSPECIFIED') ) ;
#118 =( BOUNDED_CURVE ( )  B_SPLINE_CURVE ( 2, ( #107, #87, #73, #8, #152 ),
 .UNSPECIFIED., .F., .T. ) 
 B_SPLINE_CURVE_WITH_KNOTS ( ( 3, 2, 3 ),
 ( 3.141592653589778461, 4.712388980384684345, 6.283185307179590673 ),
 .UNSPECIFIED. ) 
 CURVE ( )  GEOMETRIC_REPRESENTATION_ITEM ( )  RATIONAL_B_SPLINE_CURVE ( ( 1.000000000000002220, 0.7071067811865459074, 1.000000000000000000, 0.7071067811865480168, 1.000000000000000000 ) ) 
 REPRESENTATION_ITEM ( '' )  );
#119 = EDGE_CURVE ( 'NONE', #41, #150, #49, .T. ) ;
#120 = DIRECTION ( 'NONE',  ( 0.0000000000000000000, 0.0000000000000000000, 1.000000000000000000 ) ) ;
#121 = CARTESIAN_POINT ( 'NONE',  ( 12.69999999999999929, 2.696301922142130194E-30, 4.854387570499470783 ) ) ;
#122 = ORIENTED_EDGE ( 'NONE', *, *, #119, .T. ) ;
#123 = CARTESIAN_POINT ( 'NONE',  ( -12.69999999999999929, 1.555301434917139813E-15, 7.000000000000000000 ) ) ;
#124 = CC_DESIGN_DATE_AND_TIME_ASSIGNMENT ( #55, #149, ( #175 ) ) ;
#125 = DIRECTION ( 'NONE',  ( 0.0000000000000000000, 0.0000000000000000000, 1.000000000000000000 ) ) ;
#126 = AXIS2_PLACEMENT_3D ( 'NONE', #143, #125, #64 ) ;
#127 = EDGE_CURVE ( 'NONE', #69, #41, #51, .T. ) ;
#128 = PERSON_AND_ORGANIZATION ( #117, #99 ) ;
#129 = CARTESIAN_POINT ( 'NONE',  ( -12.70000000000013252, -12.69999999999999929, 4.854387570499466342 ) ) ;
#130 = ADVANCED_FACE ( 'NONE', ( #98 ), #16, .T. ) ;
#131 = APPROVAL_DATE_TIME ( #25, #92 ) ;
#132 = ORIENTED_EDGE ( 'NONE', *, *, #119, .F. ) ;
#133 = APPROVAL_ROLE ( '' ) ;
#134 = ORIENTED_EDGE ( 'NONE', *, *, #5, .T. ) ;
#135 = PLANE ( 'NONE',  #62 ) ;
#136 =( LENGTH_UNIT ( ) NAMED_UNIT ( * ) SI_UNIT ( .MILLI., .METRE. ) );
#137 = CARTESIAN_POINT ( 'NONE',  ( 7.776507174585690191E-16, 12.69999999999999929, 4.854387570499470783 ) ) ;
#138 = AXIS2_PLACEMENT_3D ( 'NONE', #4, #50, #153 ) ;
#139 = CARTESIAN_POINT ( 'NONE',  ( 4.996003610813200488E-16, 1.776356839400249676E-15, 4.854387570499470783 ) ) ;
#140 = APPROVAL_ROLE ( '' ) ;
#141 = LOCAL_TIME ( 10, 18, 52.00000000000000000, #166 ) ;
#142 =( BOUNDED_CURVE ( )  B_SPLINE_CURVE ( 2, ( #80, #129, #168, #29, #7 ),
 .UNSPECIFIED., .F., .T. ) 
 B_SPLINE_CURVE_WITH_KNOTS ( ( 3, 2, 3 ),
 ( 3.141592653589778461, 4.712388980384684345, 6.283185307179590673 ),
 .UNSPECIFIED. ) 
 CURVE ( )  GEOMETRIC_REPRESENTATION_ITEM ( )  RATIONAL_B_SPLINE_CURVE ( ( 1.000000000000002220, 0.7071067811865459074, 1.000000000000000000, 0.7071067811865480168, 1.000000000000000000 ) ) 
 REPRESENTATION_ITEM ( '' )  );
#143 = CARTESIAN_POINT ( 'NONE',  ( 0.0000000000000000000, 0.0000000000000000000, 0.0000000000000000000 ) ) ;
#144 = CALENDAR_DATE ( 2019, 1, 10 ) ;
#145 = ADVANCED_FACE ( 'NONE', ( #19 ), #34, .T. ) ;
#146 = ORIENTED_EDGE ( 'NONE', *, *, #61, .T. ) ;
#147 = AXIS2_PLACEMENT_3D ( 'NONE', #76, #86, #15 ) ;
#148 = APPROVAL_ROLE ( '' ) ;
#149 = DATE_TIME_ROLE ( 'classification_date' ) ;
#150 = VERTEX_POINT ( 'NONE', #123 ) ;
#151 = ADVANCED_BREP_SHAPE_REPRESENTATION ( '110-1204E UVFS pl-cx 25.4 F40', ( #78, #126 ), #39 ) ;
#152 = CARTESIAN_POINT ( 'NONE',  ( 12.69999999999999929, 0.0000000000000000000, 7.000000000000000000 ) ) ;
#153 = DIRECTION ( 'NONE',  ( 0.0000000000000000000, -1.000000000000000000, 0.0000000000000000000 ) ) ;
#154 = CARTESIAN_POINT ( 'NONE',  ( 0.0000000000000000000, 26.11199999999999832, 7.000000000000000000 ) ) ;
#155 = DIRECTION ( 'NONE',  ( 1.000000000000000000, -1.398706172756100243E-16, 0.0000000000000000000 ) ) ;
#156 = APPLICATION_PROTOCOL_DEFINITION ( 'international standard', 'config_control_design', 1994, #90 ) ;
#157 = CC_DESIGN_APPROVAL ( #165, ( #175 ) ) ;
#158 = PERSON_AND_ORGANIZATION_ROLE ( 'design_supplier' ) ;
#159 = ORIENTED_EDGE ( 'NONE', *, *, #61, .F. ) ;
#160 = APPROVAL_STATUS ( 'not_yet_approved' ) ;
#161 = VECTOR ( 'NONE', #120, 1000.000000000000000 ) ;
#162 = PRODUCT_DEFINITION_FORMATION_WITH_SPECIFIED_SOURCE ( 'ANY', '', #58, .NOT_KNOWN. ) ;
#163 = COORDINATED_UNIVERSAL_TIME_OFFSET ( 2, 0, .AHEAD. ) ;
#164 = ORIENTED_EDGE ( 'NONE', *, *, #112, .F. ) ;
#165 = APPROVAL ( #160, 'UNSPECIFIED' ) ;
#166 = COORDINATED_UNIVERSAL_TIME_OFFSET ( 2, 0, .AHEAD. ) ;
#167 = APPROVAL ( #23, 'UNSPECIFIED' ) ;
#168 = CARTESIAN_POINT ( 'NONE',  ( -2.332952152375710015E-15, -12.69999999999999929, 4.854387570499470783 ) ) ;
#169 = CARTESIAN_POINT ( 'NONE',  ( -12.69999999999986962, 12.70000000000000284, 4.854387570499467230 ) ) ;
#170 = FACE_OUTER_BOUND ( 'NONE', #27, .T. ) ;
#171 = LOCAL_TIME ( 10, 18, 52.00000000000000000, #20 ) ;
#172 =( NAMED_UNIT ( * ) SI_UNIT ( $, .STERADIAN. ) SOLID_ANGLE_UNIT ( ) );
#173 = ORIENTED_EDGE ( 'NONE', *, *, #112, .T. ) ;
#174 = CC_DESIGN_PERSON_AND_ORGANIZATION_ASSIGNMENT ( #65, #26, ( #52 ) ) ;
#175 = SECURITY_CLASSIFICATION ( '', '', #113 ) ;
#176 = DESIGN_CONTEXT ( 'detailed design', #90, 'design' ) ;
#177 = DATE_TIME_ROLE ( 'creation_date' ) ;
#178 = PERSON_AND_ORGANIZATION ( #117, #99 ) ;
#179 = CARTESIAN_POINT ( 'NONE',  ( -12.69999999999999929, 1.555301434917139813E-15, 7.000000000000000000 ) ) ;
ENDSEC;
END-ISO-10303-21;
