ISO-10303-21;
HEADER;
FILE_DESCRIPTION (( 'STEP AP203' ),
    '1' );
FILE_NAME ('110-1203E UVFS pl-cx 25.4 F30.STEP',
    '2018-12-13T15:02:27',
    ( '' ),
    ( '' ),
    'SwSTEP 2.0',
    'SolidWorks 2017',
    '' );
FILE_SCHEMA (( 'CONFIG_CONTROL_DESIGN' ));
ENDSEC;

DATA;
#1 = CARTESIAN_POINT ( 'NONE',  ( 4.996003610813200500E-016, 2.442490654175340100E-015, 9.750000000000000000 ) ) ;
#2 = PERSON_AND_ORGANIZATION_ROLE ( 'design_owner' ) ;
#3 = APPROVAL_ROLE ( '' ) ;
#4 = LOCAL_TIME ( 17, 2, 27.00000000000000000, #11 ) ;
#5 = DIRECTION ( 'NONE',  ( 1.000000000000000000, 0.0000000000000000000, 0.0000000000000000000 ) ) ;
#6 = EDGE_LOOP ( 'NONE', ( #214, #60, #84 ) ) ;
#7 =( NAMED_UNIT ( * ) SI_UNIT ( $, .STERADIAN. ) SOLID_ANGLE_UNIT ( ) );
#8 = DATE_AND_TIME ( #152, #4 ) ;
#9 = EDGE_LOOP ( 'NONE', ( #99, #171, #187, #87, #191 ) ) ;
#10 = CC_DESIGN_SECURITY_CLASSIFICATION ( #144, ( #81 ) ) ;
#11 = COORDINATED_UNIVERSAL_TIME_OFFSET ( 2, 0, .AHEAD. ) ;
#12 = ADVANCED_FACE ( 'NONE', ( #51 ), #225, .T. ) ;
#13 = AXIS2_PLACEMENT_3D ( 'NONE', #63, #43, #220 ) ;
#14 = SHAPE_DEFINITION_REPRESENTATION ( #55, #234 ) ;
#15 = CARTESIAN_POINT ( 'NONE',  ( -7.154924903406699100, 6.760987157577682500, -4.187572716380207000 ) ) ;
#16 = DATE_AND_TIME ( #18, #138 ) ;
#17 = PLANE ( 'NONE',  #91 ) ;
#18 = CALENDAR_DATE ( 2018, 13, 12 ) ;
#19 = VERTEX_POINT ( 'NONE', #229 ) ;
#20 =( BOUNDED_SURFACE ( )  B_SPLINE_SURFACE ( 3, 3, ( 
 ( #161, #147, #160, #196 ),
 ( #88, #58, #104, #56 ),
 ( #233, #86, #103, #72 ),
 ( #215, #197, #232, #21 ) ),
 .UNSPECIFIED., .F., .F., .F. ) 
 B_SPLINE_SURFACE_WITH_KNOTS ( ( 4, 4 ),
 ( 4, 4 ),
 ( 0.0000000000000000000, 1.000000000000000000 ),
 ( 0.0000000000000000000, 1.000000000000000000 ),
 .UNSPECIFIED. ) 
 GEOMETRIC_REPRESENTATION_ITEM ( )  RATIONAL_B_SPLINE_SURFACE ( (
 ( 1.000000000000000000, 0.9012452960969777900, 0.9012452960969777900, 1.000000000000000000),
 ( 0.6303203853792275200, 0.5680732823570630000, 0.5680732823570630000, 0.6303203853792275200),
 ( 0.6303203853792275200, 0.5680732823570630000, 0.5680732823570630000, 0.6303203853792275200),
 ( 1.000000000000000000, 0.9012452960969777900, 0.9012452960969777900, 1.000000000000000000) ) ) 
 REPRESENTATION_ITEM ( '' )  SURFACE ( )  );
#21 = CARTESIAN_POINT ( 'NONE',  ( 5.676606443610788600, 12.78476409212511000, 11.40870301204057600 ) ) ;
#22 = PRODUCT_RELATED_PRODUCT_CATEGORY ( 'detail', '', ( #228 ) ) ;
#23 = DIRECTION ( 'NONE',  ( 1.000000000000000000, 0.0000000000000000000, 0.0000000000000000000 ) ) ;
#24 = DIRECTION ( 'NONE',  ( -0.0000000000000000000, -0.0000000000000000000, -1.000000000000000000 ) ) ;
#25 = APPLICATION_CONTEXT ( 'configuration controlled 3d designs of mechanical parts and assemblies' ) ;
#26 = APPROVAL_DATE_TIME ( #157, #97 ) ;
#27 = FACE_OUTER_BOUND ( 'NONE', #163, .T. ) ;
#28 = EDGE_CURVE ( 'NONE', #39, #94, #35, .T. ) ;
#29 = PERSON_AND_ORGANIZATION ( #136, #59 ) ;
#30 = AXIS2_PLACEMENT_3D ( 'NONE', #148, #112, #5 ) ;
#31 = APPROVAL_DATE_TIME ( #178, #156 ) ;
#32 = CIRCLE ( 'NONE', #30, 12.69999999999999900 ) ;
#33 = CARTESIAN_POINT ( 'NONE',  ( -13.24997607138695900, 6.760987157577684300, -0.4401333728962152400 ) ) ;
#34 = CARTESIAN_POINT ( 'NONE',  ( -16.47940858383781700, -6.760987157577670100, 5.944513525790868300 ) ) ;
#35 = CIRCLE ( 'NONE', #107, 12.69999999999999900 ) ;
#36 = DIRECTION ( 'NONE',  ( 0.0000000000000000000, 0.0000000000000000000, 1.000000000000000000 ) ) ;
#37 = PRODUCT_DEFINITION ( 'UNKNOWN', '', #81, #212 ) ;
#38 = CARTESIAN_POINT ( 'NONE',  ( 4.996003610813200500E-016, 2.442490654175340100E-015, 7.750957191134370200 ) ) ;
#39 = VERTEX_POINT ( 'NONE', #140 ) ;
#40 = DIRECTION ( 'NONE',  ( 0.0000000000000000000, 0.0000000000000000000, 1.000000000000000000 ) ) ;
#41 =( LENGTH_UNIT ( ) NAMED_UNIT ( * ) SI_UNIT ( .MILLI., .METRE. ) );
#42 = AXIS2_PLACEMENT_3D ( 'NONE', #61, #149, #129 ) ;
#43 = DIRECTION ( 'NONE',  ( 0.0000000000000000000, 0.0000000000000000000, 1.000000000000000000 ) ) ;
#44 = DATE_AND_TIME ( #170, #205 ) ;
#45 = CIRCLE ( 'NONE', #42, 12.69999999999999900 ) ;
#46 = APPLICATION_PROTOCOL_DEFINITION ( 'international standard', 'config_control_design', 1994, #150 ) ;
#47 = ORIENTED_EDGE ( 'NONE', *, *, #209, .F. ) ;
#48 = EDGE_CURVE ( 'NONE', #94, #39, #227, .T. ) ;
#49 = COORDINATED_UNIVERSAL_TIME_OFFSET ( 2, 0, .AHEAD. ) ;
#50 = AXIS2_PLACEMENT_3D ( 'NONE', #202, #24, #111 ) ;
#51 = FACE_OUTER_BOUND ( 'NONE', #6, .T. ) ;
#52 = CARTESIAN_POINT ( 'NONE',  ( -3.469446951953614200E-015, 12.78476409212511200, 7.918537345176949000 ) ) ;
#53 = ADVANCED_FACE ( 'NONE', ( #68 ), #17, .T. ) ;
#54 = ORIENTED_EDGE ( 'NONE', *, *, #85, .F. ) ;
#55 = PRODUCT_DEFINITION_SHAPE ( 'NONE', 'NONE',  #37 ) ;
#56 = CARTESIAN_POINT ( 'NONE',  ( 16.47940858383780900, -6.760987157577677200, 5.944513525790867400 ) ) ;
#57 = DIRECTION ( 'NONE',  ( -0.0000000000000000000, -0.0000000000000000000, -1.000000000000000000 ) ) ;
#58 = CARTESIAN_POINT ( 'NONE',  ( 7.154924903406692000, -6.760987157577679000, -4.187572716380215000 ) ) ;
#59 = ORGANIZATION ( 'UNSPECIFIED', 'UNSPECIFIED', '' ) ;
#60 = ORIENTED_EDGE ( 'NONE', *, *, #85, .T. ) ;
#61 = CARTESIAN_POINT ( 'NONE',  ( 4.996003610813200500E-016, 2.442490654175340100E-015, 7.750957191134370200 ) ) ;
#62 = DIRECTION ( 'NONE',  ( 0.0000000000000000000, 0.0000000000000000000, 1.000000000000000000 ) ) ;
#63 = CARTESIAN_POINT ( 'NONE',  ( 4.996003610813200500E-016, 2.442490654175340100E-015, 7.750957191134370200 ) ) ;
#64 = CC_DESIGN_APPROVAL ( #156, ( #37 ) ) ;
#65 = LINE ( 'NONE', #177, #235 ) ;
#66 = APPROVAL_PERSON_ORGANIZATION ( #190, #156, #185 ) ;
#67 = PERSON_AND_ORGANIZATION ( #136, #59 ) ;
#68 = FACE_OUTER_BOUND ( 'NONE', #206, .T. ) ;
#69 = CARTESIAN_POINT ( 'NONE',  ( -1.040834085586084300E-014, 6.760987157577680800, -4.187572716380209700 ) ) ;
#70 = CARTESIAN_POINT ( 'NONE',  ( -1.214306433183765100E-014, -6.760987157577676300, -4.187572716380213200 ) ) ;
#71 = CARTESIAN_POINT ( 'NONE',  ( 4.996003610813200500E-016, 2.442490654175340100E-015, 7.750957191134370200 ) ) ;
#72 = CARTESIAN_POINT ( 'NONE',  ( 16.47940858383780900, 6.760987157577679000, 5.944513525790864800 ) ) ;
#73 = PERSON_AND_ORGANIZATION ( #136, #59 ) ;
#74 = VERTEX_POINT ( 'NONE', #117 ) ;
#75 = CC_DESIGN_PERSON_AND_ORGANIZATION_ASSIGNMENT ( #29, #76, ( #37 ) ) ;
#76 = PERSON_AND_ORGANIZATION_ROLE ( 'creator' ) ;
#77 = EDGE_CURVE ( 'NONE', #74, #94, #65, .T. ) ;
#78 =( NAMED_UNIT ( * ) PLANE_ANGLE_UNIT ( ) SI_UNIT ( $, .RADIAN. ) );
#79 = PERSON_AND_ORGANIZATION ( #136, #59 ) ;
#80 = APPROVAL_ROLE ( '' ) ;
#81 = PRODUCT_DEFINITION_FORMATION_WITH_SPECIFIED_SOURCE ( 'ANY', '', #228, .NOT_KNOWN. ) ;
#82 = CLOSED_SHELL ( 'NONE', ( #118, #137, #12, #194, #53 ) ) ;
#83 = CC_DESIGN_DATE_AND_TIME_ASSIGNMENT ( #8, #182, ( #37 ) ) ;
#84 = ORIENTED_EDGE ( 'NONE', *, *, #151, .T. ) ;
#85 = EDGE_CURVE ( 'NONE', #19, #145, #221, .T. ) ;
#86 = CARTESIAN_POINT ( 'NONE',  ( 7.154924903406693700, 6.760987157577679000, -4.187572716380215000 ) ) ;
#87 = ORIENTED_EDGE ( 'NONE', *, *, #77, .F. ) ;
#88 = CARTESIAN_POINT ( 'NONE',  ( -5.779341866239141300E-015, -6.760987157577676300, -4.187572716380212300 ) ) ;
#89 = DIRECTION ( 'NONE',  ( 1.000000000000000000, 0.0000000000000000000, 0.0000000000000000000 ) ) ;
#90 = ORIENTED_EDGE ( 'NONE', *, *, #176, .T. ) ;
#91 = AXIS2_PLACEMENT_3D ( 'NONE', #200, #40, #141 ) ;
#92 = PERSON_AND_ORGANIZATION_ROLE ( 'classification_officer' ) ;
#93 = DIRECTION ( 'NONE',  ( 0.0000000000000000000, 0.0000000000000000000, 1.000000000000000000 ) ) ;
#94 = VERTEX_POINT ( 'NONE', #108 ) ;
#95 = DIRECTION ( 'NONE',  ( -2.543642856077739600E-016, -1.000000000000000000, 2.429584700247629200E-016 ) ) ;
#96 = PERSON_AND_ORGANIZATION_ROLE ( 'design_supplier' ) ;
#97 = APPROVAL ( #201, 'UNSPECIFIED' ) ;
#98 = APPROVAL_DATE_TIME ( #44, #193 ) ;
#99 = ORIENTED_EDGE ( 'NONE', *, *, #151, .F. ) ;
#100 = LOCAL_TIME ( 17, 2, 27.00000000000000000, #49 ) ;
#101 = CARTESIAN_POINT ( 'NONE',  ( -5.676606443610794800, -12.78476409212510700, 11.40870301204058100 ) ) ;
#102 = ORIENTED_EDGE ( 'NONE', *, *, #176, .F. ) ;
#103 = CARTESIAN_POINT ( 'NONE',  ( 13.24997607138695700, 6.760987157577679000, -0.4401333728962265600 ) ) ;
#104 = CARTESIAN_POINT ( 'NONE',  ( 13.24997607138695700, -6.760987157577679000, -0.4401333728962248900 ) ) ;
#105 = DIRECTION ( 'NONE',  ( 1.000000000000000000, 0.0000000000000000000, 0.0000000000000000000 ) ) ;
#106 = CIRCLE ( 'NONE', #159, 14.27999999999999900 ) ;
#107 = AXIS2_PLACEMENT_3D ( 'NONE', #1, #142, #231 ) ;
#108 = CARTESIAN_POINT ( 'NONE',  ( 12.69999999999999900, 2.442490654175340100E-015, 9.750000000000000000 ) ) ;
#109 = CARTESIAN_POINT ( 'NONE',  ( 1.795195845620098700E-015, 12.69999999999999900, 7.750957191134370200 ) ) ;
#110 = AXIS2_PLACEMENT_3D ( 'NONE', #121, #57, #105 ) ;
#111 = DIRECTION ( 'NONE',  ( 1.000000000000000000, 0.0000000000000000000, 0.0000000000000000000 ) ) ;
#112 = DIRECTION ( 'NONE',  ( -0.0000000000000000000, -0.0000000000000000000, -1.000000000000000000 ) ) ;
#113 = ORIENTED_EDGE ( 'NONE', *, *, #48, .F. ) ;
#114 = LOCAL_TIME ( 17, 2, 27.00000000000000000, #213 ) ;
#115 = CARTESIAN_POINT ( 'NONE',  ( -6.938893903907228400E-015, -12.78476409212510800, 7.918537345176945400 ) ) ;
#116 = CC_DESIGN_PERSON_AND_ORGANIZATION_ASSIGNMENT ( #73, #126, ( #81 ) ) ;
#117 = CARTESIAN_POINT ( 'NONE',  ( 12.69999999999999900, 2.442490654175340100E-015, 7.750957191134370200 ) ) ;
#118 = ADVANCED_FACE ( 'NONE', ( #175 ), #20, .T. ) ;
#119 = CYLINDRICAL_SURFACE ( 'NONE', #172, 12.69999999999999900 ) ;
#120 = CARTESIAN_POINT ( 'NONE',  ( -4.564174688786522400, 12.78476409212511400, 9.209405170684052100 ) ) ;
#121 = CARTESIAN_POINT ( 'NONE',  ( 4.996003610813200500E-016, 2.442490654175340100E-015, 9.750000000000000000 ) ) ;
#122 = DIRECTION ( 'NONE',  ( 0.0000000000000000000, 0.0000000000000000000, 1.000000000000000000 ) ) ;
#123 = FACE_OUTER_BOUND ( 'NONE', #9, .T. ) ;
#124 =( GEOMETRIC_REPRESENTATION_CONTEXT ( 3 ) GLOBAL_UNCERTAINTY_ASSIGNED_CONTEXT ( ( #183 ) ) GLOBAL_UNIT_ASSIGNED_CONTEXT ( ( #41, #78, #7 ) ) REPRESENTATION_CONTEXT ( 'NONE', 'WORKASPACE' ) );
#125 = CARTESIAN_POINT ( 'NONE',  ( -12.69999999999999900, 3.997792089092478900E-015, 7.750957191134370200 ) ) ;
#126 = PERSON_AND_ORGANIZATION_ROLE ( 'creator' ) ;
#127 = MECHANICAL_CONTEXT ( 'NONE', #25, 'mechanical' ) ;
#128 = MANIFOLD_SOLID_BREP ( 'Imported1', #82 ) ;
#129 = DIRECTION ( 'NONE',  ( 1.000000000000000000, 0.0000000000000000000, 0.0000000000000000000 ) ) ;
#130 = CC_DESIGN_PERSON_AND_ORGANIZATION_ASSIGNMENT ( #67, #96, ( #81 ) ) ;
#131 = EDGE_LOOP ( 'NONE', ( #90, #132, #189 ) ) ;
#132 = ORIENTED_EDGE ( 'NONE', *, *, #222, .T. ) ;
#133 = ORIENTED_EDGE ( 'NONE', *, *, #77, .T. ) ;
#134 = AXIS2_PLACEMENT_3D ( 'NONE', #38, #164, #89 ) ;
#135 = CARTESIAN_POINT ( 'NONE',  ( -2.464632914682605100, 12.78476409212511200, 7.918537345176952500 ) ) ;
#136 = PERSON ( 'UNSPECIFIED', 'UNSPECIFIED', 'UNSPECIFIED', ('UNSPECIFIED'), ('UNSPECIFIED'), ('UNSPECIFIED') ) ;
#137 = ADVANCED_FACE ( 'NONE', ( #123 ), #119, .T. ) ;
#138 = LOCAL_TIME ( 17, 2, 27.00000000000000000, #162 ) ;
#139 = ORIENTED_EDGE ( 'NONE', *, *, #48, .T. ) ;
#140 = CARTESIAN_POINT ( 'NONE',  ( -12.69999999999999900, 3.997792089092478900E-015, 9.750000000000000000 ) ) ;
#141 = DIRECTION ( 'NONE',  ( 1.000000000000000000, 0.0000000000000000000, -0.0000000000000000000 ) ) ;
#142 = DIRECTION ( 'NONE',  ( -0.0000000000000000000, -0.0000000000000000000, -1.000000000000000000 ) ) ;
#143 = COORDINATED_UNIVERSAL_TIME_OFFSET ( 2, 0, .AHEAD. ) ;
#144 = SECURITY_CLASSIFICATION ( '', '', #204 ) ;
#145 = VERTEX_POINT ( 'NONE', #180 ) ;
#146 = DIRECTION ( 'NONE',  ( 1.000000000000000000, 0.0000000000000000000, 0.0000000000000000000 ) ) ;
#147 = CARTESIAN_POINT ( 'NONE',  ( 2.464632914682603400, -12.78476409212510800, 7.918537345176945400 ) ) ;
#148 = CARTESIAN_POINT ( 'NONE',  ( 4.996003610813200500E-016, 2.442490654175340100E-015, 7.750957191134370200 ) ) ;
#149 = DIRECTION ( 'NONE',  ( -0.0000000000000000000, -0.0000000000000000000, -1.000000000000000000 ) ) ;
#150 = APPLICATION_CONTEXT ( 'configuration controlled 3d designs of mechanical parts and assemblies' ) ;
#151 = EDGE_CURVE ( 'NONE', #145, #181, #219, .T. ) ;
#152 = CALENDAR_DATE ( 2018, 13, 12 ) ;
#153 = EDGE_CURVE ( 'NONE', #181, #74, #32, .T. ) ;
#154 = APPROVAL_PERSON_ORGANIZATION ( #208, #97, #80 ) ;
#155 = ORIENTED_EDGE ( 'NONE', *, *, #28, .F. ) ;
#156 = APPROVAL ( #168, 'UNSPECIFIED' ) ;
#157 = DATE_AND_TIME ( #188, #114 ) ;
#158 = CARTESIAN_POINT ( 'NONE',  ( -7.154924903406703500, -6.760987157577675400, -4.187572716380209700 ) ) ;
#159 = AXIS2_PLACEMENT_3D ( 'NONE', #167, #184, #95 ) ;
#160 = CARTESIAN_POINT ( 'NONE',  ( 4.564174688786525100, -12.78476409212511000, 9.209405170684046700 ) ) ;
#161 = CARTESIAN_POINT ( 'NONE',  ( -4.650380076379416800E-015, -12.78476409212510800, 7.918537345176945400 ) ) ;
#162 = COORDINATED_UNIVERSAL_TIME_OFFSET ( 2, 0, .AHEAD. ) ;
#163 = EDGE_LOOP ( 'NONE', ( #47, #54, #102, #133, #139 ) ) ;
#164 = DIRECTION ( 'NONE',  ( -0.0000000000000000000, -0.0000000000000000000, -1.000000000000000000 ) ) ;
#165 = APPROVAL_PERSON_ORGANIZATION ( #211, #193, #3 ) ;
#166 = DATE_TIME_ROLE ( 'classification_date' ) ;
#167 = CARTESIAN_POINT ( 'NONE',  ( 0.0000000000000000000, 8.881784197001250400E-016, 14.27999999999999900 ) ) ;
#168 = APPROVAL_STATUS ( 'not_yet_approved' ) ;
#169 = CC_DESIGN_PERSON_AND_ORGANIZATION_ASSIGNMENT ( #79, #92, ( #144 ) ) ;
#170 = CALENDAR_DATE ( 2018, 13, 12 ) ;
#171 = ORIENTED_EDGE ( 'NONE', *, *, #209, .T. ) ;
#172 = AXIS2_PLACEMENT_3D ( 'NONE', #71, #122, #146 ) ;
#173 = CARTESIAN_POINT ( 'NONE',  ( -16.47940858383780900, 6.760987157577687000, 5.944513525790868300 ) ) ;
#174 = CARTESIAN_POINT ( 'NONE',  ( -4.564174688786534000, -12.78476409212510800, 9.209405170684052100 ) ) ;
#175 = FACE_OUTER_BOUND ( 'NONE', #131, .T. ) ;
#176 = EDGE_CURVE ( 'NONE', #74, #19, #45, .T. ) ;
#177 = CARTESIAN_POINT ( 'NONE',  ( 12.69999999999999900, 2.442490654175340100E-015, 7.750957191134370200 ) ) ;
#178 = DATE_AND_TIME ( #223, #100 ) ;
#179 = CC_DESIGN_DATE_AND_TIME_ASSIGNMENT ( #16, #166, ( #144 ) ) ;
#180 = CARTESIAN_POINT ( 'NONE',  ( -12.69999999999999900, 3.997792089092478900E-015, 7.750957191134370200 ) ) ;
#181 = VERTEX_POINT ( 'NONE', #109 ) ;
#182 = DATE_TIME_ROLE ( 'creation_date' ) ;
#183 = UNCERTAINTY_MEASURE_WITH_UNIT (LENGTH_MEASURE( 1.000000000000000100E-005 ), #41, 'distance_accuracy_value', 'NONE');
#184 = DIRECTION ( 'NONE',  ( 1.000000000000000000, -2.543642856077740100E-016, -2.198225105293790000E-016 ) ) ;
#185 = APPROVAL_ROLE ( '' ) ;
#186 = AXIS2_PLACEMENT_3D ( 'NONE', #203, #93, #23 ) ;
#187 = ORIENTED_EDGE ( 'NONE', *, *, #28, .T. ) ;
#188 = CALENDAR_DATE ( 2018, 13, 12 ) ;
#189 = ORIENTED_EDGE ( 'NONE', *, *, #153, .T. ) ;
#190 = PERSON_AND_ORGANIZATION ( #136, #59 ) ;
#191 = ORIENTED_EDGE ( 'NONE', *, *, #153, .F. ) ;
#192 = CARTESIAN_POINT ( 'NONE',  ( -5.676606443610781500, 12.78476409212511400, 11.40870301204057900 ) ) ;
#193 = APPROVAL ( #217, 'UNSPECIFIED' ) ;
#194 = ADVANCED_FACE ( 'NONE', ( #27 ), #210, .T. ) ;
#195 = CARTESIAN_POINT ( 'NONE',  ( -13.24997607138696400, -6.760987157577673700, -0.4401333728962179000 ) ) ;
#196 = CARTESIAN_POINT ( 'NONE',  ( 5.676606443610787700, -12.78476409212511000, 11.40870301204057900 ) ) ;
#197 = CARTESIAN_POINT ( 'NONE',  ( 2.464632914682607400, 12.78476409212511200, 7.918537345176945400 ) ) ;
#198 = CC_DESIGN_PERSON_AND_ORGANIZATION_ASSIGNMENT ( #199, #2, ( #228 ) ) ;
#199 = PERSON_AND_ORGANIZATION ( #136, #59 ) ;
#200 = CARTESIAN_POINT ( 'NONE',  ( 0.0000000000000000000, 26.11199999999999800, 9.750000000000000000 ) ) ;
#201 = APPROVAL_STATUS ( 'not_yet_approved' ) ;
#202 = CARTESIAN_POINT ( 'NONE',  ( 4.996003610813200500E-016, 2.442490654175340100E-015, 7.750957191134370200 ) ) ;
#203 = CARTESIAN_POINT ( 'NONE',  ( 0.0000000000000000000, 0.0000000000000000000, 0.0000000000000000000 ) ) ;
#204 = SECURITY_CLASSIFICATION_LEVEL ( 'unclassified' ) ;
#205 = LOCAL_TIME ( 17, 2, 27.00000000000000000, #143 ) ;
#206 = EDGE_LOOP ( 'NONE', ( #113, #155 ) ) ;
#207 = CC_DESIGN_APPROVAL ( #193, ( #144 ) ) ;
#208 = PERSON_AND_ORGANIZATION ( #136, #59 ) ;
#209 = EDGE_CURVE ( 'NONE', #145, #39, #224, .T. ) ;
#210 = CYLINDRICAL_SURFACE ( 'NONE', #13, 12.69999999999999900 ) ;
#211 = PERSON_AND_ORGANIZATION ( #136, #59 ) ;
#212 = DESIGN_CONTEXT ( 'detailed design', #150, 'design' ) ;
#213 = COORDINATED_UNIVERSAL_TIME_OFFSET ( 2, 0, .AHEAD. ) ;
#214 = ORIENTED_EDGE ( 'NONE', *, *, #222, .F. ) ;
#215 = CARTESIAN_POINT ( 'NONE',  ( 1.853594693535234200E-015, 12.78476409212511200, 7.918537345176945400 ) ) ;
#216 = VECTOR ( 'NONE', #62, 1000.000000000000000 ) ;
#217 = APPROVAL_STATUS ( 'not_yet_approved' ) ;
#218 = APPLICATION_PROTOCOL_DEFINITION ( 'international standard', 'config_control_design', 1994, #25 ) ;
#219 = CIRCLE ( 'NONE', #50, 12.69999999999999900 ) ;
#220 = DIRECTION ( 'NONE',  ( 1.000000000000000000, 0.0000000000000000000, 0.0000000000000000000 ) ) ;
#221 = CIRCLE ( 'NONE', #134, 12.69999999999999900 ) ;
#222 = EDGE_CURVE ( 'NONE', #19, #181, #106, .T. ) ;
#223 = CALENDAR_DATE ( 2018, 13, 12 ) ;
#224 = LINE ( 'NONE', #125, #216 ) ;
#225 =( BOUNDED_SURFACE ( )  B_SPLINE_SURFACE ( 3, 3, ( 
 ( #101, #174, #230, #115 ),
 ( #34, #195, #158, #70 ),
 ( #173, #33, #15, #69 ),
 ( #192, #120, #135, #52 ) ),
 .UNSPECIFIED., .F., .F., .F. ) 
 B_SPLINE_SURFACE_WITH_KNOTS ( ( 4, 4 ),
 ( 4, 4 ),
 ( 0.0000000000000000000, 1.000000000000000000 ),
 ( 0.0000000000000000000, 1.000000000000000000 ),
 .UNSPECIFIED. ) 
 GEOMETRIC_REPRESENTATION_ITEM ( )  RATIONAL_B_SPLINE_SURFACE ( (
 ( 1.000000000000000000, 0.9012452960969780100, 0.9012452960969780100, 1.000000000000000000),
 ( 0.6303203853792275200, 0.5680732823570632300, 0.5680732823570632300, 0.6303203853792275200),
 ( 0.6303203853792275200, 0.5680732823570632300, 0.5680732823570632300, 0.6303203853792275200),
 ( 1.000000000000000000, 0.9012452960969780100, 0.9012452960969780100, 1.000000000000000000) ) ) 
 REPRESENTATION_ITEM ( '' )  SURFACE ( )  );
#226 = CC_DESIGN_APPROVAL ( #97, ( #81 ) ) ;
#227 = CIRCLE ( 'NONE', #110, 12.69999999999999900 ) ;
#228 = PRODUCT ( '110-1203E UVFS pl-cx 25.4 F30', '110-1203E UVFS pl-cx 25.4 F30', '', ( #127 ) ) ;
#229 = CARTESIAN_POINT ( 'NONE',  ( -4.665657008817360200E-015, -12.69999999999999800, 7.750957191134371100 ) ) ;
#230 = CARTESIAN_POINT ( 'NONE',  ( -2.464632914682612300, -12.78476409212511200, 7.918537345176948100 ) ) ;
#231 = DIRECTION ( 'NONE',  ( 1.000000000000000000, 0.0000000000000000000, 0.0000000000000000000 ) ) ;
#232 = CARTESIAN_POINT ( 'NONE',  ( 4.564174688786526900, 12.78476409212511000, 9.209405170684046700 ) ) ;
#233 = CARTESIAN_POINT ( 'NONE',  ( -2.339834529557978700E-015, 6.760987157577680800, -4.187572716380212300 ) ) ;
#234 = ADVANCED_BREP_SHAPE_REPRESENTATION ( '110-1203E UVFS pl-cx 25.4 F30', ( #128, #186 ), #124 ) ;
#235 = VECTOR ( 'NONE', #36, 1000.000000000000000 ) ;
ENDSEC;
END-ISO-10303-21;
