ISO-10303-21;
HEADER;
FILE_DESCRIPTION (( 'STEP AP203' ),
    '1' );
FILE_NAME ('110-1131E UVFS pl-cx 12.7 F350.STEP',
    '2018-12-13T14:53:44',
    ( '' ),
    ( '' ),
    'SwSTEP 2.0',
    'SolidWorks 2017',
    '' );
FILE_SCHEMA (( 'CONFIG_CONTROL_DESIGN' ));
ENDSEC;

DATA;
#1 = DATE_TIME_ROLE ( 'classification_date' ) ;
#2 = APPROVAL_PERSON_ORGANIZATION ( #173, #66, #64 ) ;
#3 = AXIS2_PLACEMENT_3D ( 'NONE', #189, #161, #23 ) ;
#4 = SHAPE_DEFINITION_REPRESENTATION ( #150, #120 ) ;
#5 = APPROVAL ( #95, 'UNSPECIFIED' ) ;
#6 = ORIENTED_EDGE ( 'NONE', *, *, #110, .T. ) ;
#7 = PLANE ( 'NONE',  #81 ) ;
#8 = PRODUCT_RELATED_PRODUCT_CATEGORY ( 'detail', '', ( #18 ) ) ;
#9 = PERSON_AND_ORGANIZATION ( #30, #19 ) ;
#10 = ORIENTED_EDGE ( 'NONE', *, *, #182, .F. ) ;
#11 = CARTESIAN_POINT ( 'NONE',  ( 2.498001805406600200E-016, 1.221245327087670000E-015, 0.1210598904474040100 ) ) ;
#12 = CARTESIAN_POINT ( 'NONE',  ( 1.734723475976807100E-015, 2.143117397621182400, -0.04134797984547638300 ) ) ;
#13 = CARTESIAN_POINT ( 'NONE',  ( 2.135745669890336500, -6.426162410944539400, 0.1239823978596005500 ) ) ;
#14 = CARTESIAN_POINT ( 'NONE',  ( 1.734723475976807100E-015, -6.426162410944539400, 0.1239823978596193700 ) ) ;
#15 = CARTESIAN_POINT ( 'NONE',  ( -6.405260182936670400, 6.426162410944548300, 0.2472510637198943600 ) ) ;
#16 = EDGE_LOOP ( 'NONE', ( #201, #6 ) ) ;
#17 = CIRCLE ( 'NONE', #135, 6.349999999999999600 ) ;
#18 = PRODUCT ( '110-1131E UVFS pl-cx 12.7 F350', '110-1131E UVFS pl-cx 12.7 F350', '', ( #96 ) ) ;
#19 = ORGANIZATION ( 'UNSPECIFIED', 'UNSPECIFIED', '' ) ;
#20 = AXIS2_PLACEMENT_3D ( 'NONE', #175, #122, #204 ) ;
#21 = CALENDAR_DATE ( 2018, 13, 12 ) ;
#22 = DIRECTION ( 'NONE',  ( 0.0000000000000000000, -1.000000000000000000, -1.152498372327111000E-016 ) ) ;
#23 = DIRECTION ( 'NONE',  ( 0.0000000000000000000, -1.000000000000000000, -1.365923996832131600E-016 ) ) ;
#24 = CARTESIAN_POINT ( 'NONE',  ( 1.734723475976807100E-015, 6.426162410944548300, 0.1239823978596193700 ) ) ;
#25 = DATE_AND_TIME ( #114, #103 ) ;
#26 = CARTESIAN_POINT ( 'NONE',  ( 1.734723475976807100E-015, -2.143117397621173900, -0.04134797984547687600 ) ) ;
#27 = CARTESIAN_POINT ( 'NONE',  ( -4.275337648649506900, 2.143117397621182400, -0.0002125407822447670800 ) ) ;
#28 = FACE_OUTER_BOUND ( 'NONE', #183, .T. ) ;
#29 = DATE_TIME_ROLE ( 'creation_date' ) ;
#30 = PERSON ( 'UNSPECIFIED', 'UNSPECIFIED', 'UNSPECIFIED', ('UNSPECIFIED'), ('UNSPECIFIED'), ('UNSPECIFIED') ) ;
#31 = APPROVAL_DATE_TIME ( #25, #66 ) ;
#32 = AXIS2_PLACEMENT_3D ( 'NONE', #208, #93, #188 ) ;
#33 = FACE_OUTER_BOUND ( 'NONE', #16, .T. ) ;
#34 = VERTEX_POINT ( 'NONE', #102 ) ;
#35 = EDGE_CURVE ( 'NONE', #211, #78, #17, .T. ) ;
#36 = ORIENTED_EDGE ( 'NONE', *, *, #79, .F. ) ;
#37 = CARTESIAN_POINT ( 'NONE',  ( 1.027450897999229200E-015, 6.350000000000000500, 3.000000000000000900 ) ) ;
#38 = APPROVAL ( #192, 'UNSPECIFIED' ) ;
#39 = CARTESIAN_POINT ( 'NONE',  ( 0.0000000000000000000, 13.15799999999999900, 3.000000000000000000 ) ) ;
#40 = CARTESIAN_POINT ( 'NONE',  ( -6.411621363968014200, 2.143117397621182400, 0.08204310638128399500 ) ) ;
#41 = CARTESIAN_POINT ( 'NONE',  ( 4.275337648649536200, 2.143117397621182400, -0.0002125407822517060100 ) ) ;
#42 = CARTESIAN_POINT ( 'NONE',  ( 2.135745669890336500, 6.426162410944547400, 0.1239823978596005500 ) ) ;
#43 = CARTESIAN_POINT ( 'NONE',  ( 2.137866717975046800, 2.143117397621182400, -0.04134797984549525000 ) ) ;
#44 = ORIENTED_EDGE ( 'NONE', *, *, #153, .F. ) ;
#45 = CARTESIAN_POINT ( 'NONE',  ( 6.411621363968056800, 2.143117397621182400, 0.08204310638127704200 ) ) ;
#46 = CC_DESIGN_PERSON_AND_ORGANIZATION_ASSIGNMENT ( #160, #151, ( #18 ) ) ;
#47 = APPLICATION_CONTEXT ( 'configuration controlled 3d designs of mechanical parts and assemblies' ) ;
#48 = PERSON_AND_ORGANIZATION ( #30, #19 ) ;
#49 = PERSON_AND_ORGANIZATION_ROLE ( 'classification_officer' ) ;
#50 = COORDINATED_UNIVERSAL_TIME_OFFSET ( 2, 0, .AHEAD. ) ;
#51 = ORIENTED_EDGE ( 'NONE', *, *, #79, .T. ) ;
#52 = CC_DESIGN_DATE_AND_TIME_ASSIGNMENT ( #113, #29, ( #206 ) ) ;
#53 = CYLINDRICAL_SURFACE ( 'NONE', #181, 6.349999999999999600 ) ;
#54 = CLOSED_SHELL ( 'NONE', ( #144, #60, #162, #128, #74 ) ) ;
#55 = MANIFOLD_SOLID_BREP ( 'Imported1', #54 ) ;
#56 = CARTESIAN_POINT ( 'NONE',  ( -2.137866717975030800, 2.143117397621182400, -0.04134797984547586300 ) ) ;
#57 = PRODUCT_DEFINITION_FORMATION_WITH_SPECIFIED_SOURCE ( 'ANY', '', #18, .NOT_KNOWN. ) ;
#58 = APPLICATION_CONTEXT ( 'configuration controlled 3d designs of mechanical parts and assemblies' ) ;
#59 = CARTESIAN_POINT ( 'NONE',  ( -6.405260182936670400, -6.426162410944539400, 0.2472510637198943600 ) ) ;
#60 = ADVANCED_FACE ( 'NONE', ( #28 ), #118, .T. ) ;
#61 = CARTESIAN_POINT ( 'NONE',  ( 2.137866717975046800, -2.143117397621173500, -0.04134797984549573600 ) ) ;
#62 = CALENDAR_DATE ( 2018, 13, 12 ) ;
#63 = APPROVAL_ROLE ( '' ) ;
#64 = APPROVAL_ROLE ( '' ) ;
#65 = EDGE_LOOP ( 'NONE', ( #97, #163, #51, #185 ) ) ;
#66 = APPROVAL ( #196, 'UNSPECIFIED' ) ;
#67 = CIRCLE ( 'NONE', #164, 6.349999999999999600 ) ;
#68 = CC_DESIGN_APPROVAL ( #38, ( #98 ) ) ;
#69 = DIRECTION ( 'NONE',  ( -2.224989899641220000E-032, -1.156908079756150000E-016, 1.000000000000000000 ) ) ;
#70 = LOCAL_TIME ( 16, 53, 43.00000000000000000, #172 ) ;
#71 = CC_DESIGN_DATE_AND_TIME_ASSIGNMENT ( #178, #1, ( #98 ) ) ;
#72 =( NAMED_UNIT ( * ) SI_UNIT ( $, .STERADIAN. ) SOLID_ANGLE_UNIT ( ) );
#73 = CARTESIAN_POINT ( 'NONE',  ( 2.608154324023876300E-016, -6.426162410944539400, 0.1239823978596010800 ) ) ;
#74 = ADVANCED_FACE ( 'NONE', ( #198 ), #7, .T. ) ;
#75 = CARTESIAN_POINT ( 'NONE',  ( -4.271095945153723200, -6.426162410944539400, 0.1650770250969755800 ) ) ;
#76 = CIRCLE ( 'NONE', #20, 166.5999999999999900 ) ;
#77 = COORDINATED_UNIVERSAL_TIME_OFFSET ( 2, 0, .AHEAD. ) ;
#78 = VERTEX_POINT ( 'NONE', #156 ) ;
#79 = EDGE_CURVE ( 'NONE', #34, #78, #152, .T. ) ;
#80 = CIRCLE ( 'NONE', #3, 6.349999999999999600 ) ;
#81 = AXIS2_PLACEMENT_3D ( 'NONE', #39, #91, #174 ) ;
#82 = COORDINATED_UNIVERSAL_TIME_OFFSET ( 2, 0, .AHEAD. ) ;
#83 = DIRECTION ( 'NONE',  ( 0.0000000000000000000, -1.000000000000000000, -1.152498372327111000E-016 ) ) ;
#84 = APPROVAL_PERSON_ORGANIZATION ( #132, #5, #111 ) ;
#85 = CARTESIAN_POINT ( 'NONE',  ( 2.498001805406600200E-016, 1.221245327087670000E-015, 0.1210598904474040100 ) ) ;
#86 = CC_DESIGN_APPROVAL ( #66, ( #57 ) ) ;
#87 = DIRECTION ( 'NONE',  ( -2.224989899641220000E-032, -1.156908079756150000E-016, 1.000000000000000000 ) ) ;
#88 = DIRECTION ( 'NONE',  ( 0.0000000000000000000, -1.000000000000000000, -1.365923996832131600E-016 ) ) ;
#89 = PERSON_AND_ORGANIZATION ( #30, #19 ) ;
#90 = EDGE_LOOP ( 'NONE', ( #149, #101 ) ) ;
#91 = DIRECTION ( 'NONE',  ( 0.0000000000000000000, 0.0000000000000000000, 1.000000000000000000 ) ) ;
#92 = CARTESIAN_POINT ( 'NONE',  ( -4.271095945153723200, 6.426162410944547400, 0.1650770250969755800 ) ) ;
#93 = DIRECTION ( 'NONE',  ( 0.0000000000000000000, 0.0000000000000000000, 1.000000000000000000 ) ) ;
#94 = CARTESIAN_POINT ( 'NONE',  ( 6.411621363968056800, -2.143117397621173900, 0.08204310638127655700 ) ) ;
#95 = APPROVAL_STATUS ( 'not_yet_approved' ) ;
#96 = MECHANICAL_CONTEXT ( 'NONE', #58, 'mechanical' ) ;
#97 = ORIENTED_EDGE ( 'NONE', *, *, #137, .F. ) ;
#98 = SECURITY_CLASSIFICATION ( '', '', #213 ) ;
#99 = APPLICATION_PROTOCOL_DEFINITION ( 'international standard', 'config_control_design', 1994, #47 ) ;
#100 = CC_DESIGN_PERSON_AND_ORGANIZATION_ASSIGNMENT ( #48, #194, ( #57 ) ) ;
#101 = ORIENTED_EDGE ( 'NONE', *, *, #134, .T. ) ;
#102 = CARTESIAN_POINT ( 'NONE',  ( 2.498001805406600200E-016, -6.349999999999998800, 0.1210598904474032800 ) ) ;
#103 = LOCAL_TIME ( 16, 53, 43.00000000000000000, #50 ) ;
#104 = CIRCLE ( 'NONE', #142, 6.349999999999999600 ) ;
#105 = CARTESIAN_POINT ( 'NONE',  ( 2.498001805406600200E-016, 1.221245327087670000E-015, 0.1210598904474040100 ) ) ;
#106 = CARTESIAN_POINT ( 'NONE',  ( 2.608154324023876300E-016, 6.426162410944548300, 0.1239823978596010800 ) ) ;
#107 = CARTESIAN_POINT ( 'NONE',  ( -6.411621363968014200, -2.143117397621173900, 0.08204310638128348200 ) ) ;
#108 =( LENGTH_UNIT ( ) NAMED_UNIT ( * ) SI_UNIT ( .MILLI., .METRE. ) );
#109 = LOCAL_TIME ( 16, 53, 43.00000000000000000, #159 ) ;
#110 = EDGE_CURVE ( 'NONE', #34, #179, #76, .T. ) ;
#111 = APPROVAL_ROLE ( '' ) ;
#112 = PERSON_AND_ORGANIZATION_ROLE ( 'design_supplier' ) ;
#113 = DATE_AND_TIME ( #167, #200 ) ;
#114 = CALENDAR_DATE ( 2018, 13, 12 ) ;
#115 = FACE_OUTER_BOUND ( 'NONE', #90, .T. ) ;
#116 = ORIENTED_EDGE ( 'NONE', *, *, #35, .T. ) ;
#117 = CARTESIAN_POINT ( 'NONE',  ( 2.498001805406600200E-016, -6.349999999999998800, 0.1210598904474032800 ) ) ;
#118 = CYLINDRICAL_SURFACE ( 'NONE', #203, 6.349999999999999600 ) ;
#119 = DIRECTION ( 'NONE',  ( 2.224989899641220000E-032, 1.156908079756150000E-016, -1.000000000000000000 ) ) ;
#120 = ADVANCED_BREP_SHAPE_REPRESENTATION ( '110-1131E UVFS pl-cx 12.7 F350', ( #55, #32 ), #148 ) ;
#121 = CC_DESIGN_PERSON_AND_ORGANIZATION_ASSIGNMENT ( #9, #49, ( #98 ) ) ;
#122 = DIRECTION ( 'NONE',  ( 1.000000000000000000, 0.0000000000000000000, 0.0000000000000000000 ) ) ;
#123 = DIRECTION ( 'NONE',  ( -2.224989899641220000E-032, -1.156908079756150000E-016, 1.000000000000000000 ) ) ;
#124 = CARTESIAN_POINT ( 'NONE',  ( 4.271095945153753300, 6.426162410944547400, 0.1650770250969686400 ) ) ;
#125 = APPROVAL_DATE_TIME ( #171, #5 ) ;
#126 =( BOUNDED_SURFACE ( )  B_SPLINE_SURFACE ( 3, 3, ( 
 ( #59, #75, #186, #14 ),
 ( #107, #165, #129, #26 ),
 ( #40, #27, #56, #12 ),
 ( #15, #92, #131, #24 ) ),
 .UNSPECIFIED., .F., .F., .F. ) 
 B_SPLINE_SURFACE_WITH_KNOTS ( ( 4, 4 ),
 ( 4, 4 ),
 ( 0.0000000000000000000, 1.000000000000000000 ),
 ( 0.0000000000000000000, 1.000000000000000000 ),
 .UNSPECIFIED. ) 
 GEOMETRIC_REPRESENTATION_ITEM ( )  RATIONAL_B_SPLINE_SURFACE ( (
 ( 1.000000000000000000, 0.9998765787417184200, 0.9998765787417184200, 1.000000000000000000),
 ( 0.9995038719573445800, 0.9993805119318103200, 0.9993805119318103200, 0.9995038719573445800),
 ( 0.9995038719573445800, 0.9993805119318103200, 0.9993805119318103200, 0.9995038719573445800),
 ( 1.000000000000000000, 0.9998765787417184200, 0.9998765787417184200, 1.000000000000000000) ) ) 
 REPRESENTATION_ITEM ( '' )  SURFACE ( )  );
#127 = CARTESIAN_POINT ( 'NONE',  ( 4.271095945153752500, -6.426162410944539400, 0.1650770250969686700 ) ) ;
#128 = ADVANCED_FACE ( 'NONE', ( #166 ), #53, .T. ) ;
#129 = CARTESIAN_POINT ( 'NONE',  ( -2.137866717975030800, -2.143117397621173500, -0.04134797984547634900 ) ) ;
#130 = CALENDAR_DATE ( 2018, 13, 12 ) ;
#131 = CARTESIAN_POINT ( 'NONE',  ( -2.135745669890320600, 6.426162410944547400, 0.1239823978596199100 ) ) ;
#132 = PERSON_AND_ORGANIZATION ( #30, #19 ) ;
#133 = LINE ( 'NONE', #139, #207 ) ;
#134 = EDGE_CURVE ( 'NONE', #34, #179, #67, .T. ) ;
#135 = AXIS2_PLACEMENT_3D ( 'NONE', #136, #138, #88 ) ;
#136 = CARTESIAN_POINT ( 'NONE',  ( 2.498001805406599800E-016, 8.881784197001244400E-016, 3.000000000000000000 ) ) ;
#137 = EDGE_CURVE ( 'NONE', #179, #211, #133, .T. ) ;
#138 = DIRECTION ( 'NONE',  ( 2.224989899641220000E-032, 1.156908079756150000E-016, -1.000000000000000000 ) ) ;
#139 = CARTESIAN_POINT ( 'NONE',  ( 1.027450897999229200E-015, 6.350000000000000500, 0.1210598904474047400 ) ) ;
#140 = ORIENTED_EDGE ( 'NONE', *, *, #137, .T. ) ;
#141 = ORIENTED_EDGE ( 'NONE', *, *, #35, .F. ) ;
#142 = AXIS2_PLACEMENT_3D ( 'NONE', #105, #177, #212 ) ;
#143 = CARTESIAN_POINT ( 'NONE',  ( 2.187352738325117900E-016, -2.143117397621173900, -0.04134797984549520200 ) ) ;
#144 = ADVANCED_FACE ( 'NONE', ( #33 ), #197, .T. ) ;
#145 = CARTESIAN_POINT ( 'NONE',  ( 6.405260182936712200, -6.426162410944539400, 0.2472510637198874200 ) ) ;
#146 = DIRECTION ( 'NONE',  ( 0.0000000000000000000, -1.000000000000000000, -1.152498372327111000E-016 ) ) ;
#147 = CARTESIAN_POINT ( 'NONE',  ( 4.275337648649536200, -2.143117397621173500, -0.0002125407822521939000 ) ) ;
#148 =( GEOMETRIC_REPRESENTATION_CONTEXT ( 3 ) GLOBAL_UNCERTAINTY_ASSIGNED_CONTEXT ( ( #157 ) ) GLOBAL_UNIT_ASSIGNED_CONTEXT ( ( #108, #187, #72 ) ) REPRESENTATION_CONTEXT ( 'NONE', 'WORKASPACE' ) );
#149 = ORIENTED_EDGE ( 'NONE', *, *, #110, .F. ) ;
#150 = PRODUCT_DEFINITION_SHAPE ( 'NONE', 'NONE',  #206 ) ;
#151 = PERSON_AND_ORGANIZATION_ROLE ( 'design_owner' ) ;
#152 = LINE ( 'NONE', #117, #176 ) ;
#153 = EDGE_CURVE ( 'NONE', #78, #211, #80, .T. ) ;
#154 = DESIGN_CONTEXT ( 'detailed design', #47, 'design' ) ;
#155 = PERSON_AND_ORGANIZATION ( #30, #19 ) ;
#156 = CARTESIAN_POINT ( 'NONE',  ( 2.498001805406599800E-016, -6.349999999999998800, 2.999999999999999100 ) ) ;
#157 = UNCERTAINTY_MEASURE_WITH_UNIT (LENGTH_MEASURE( 1.000000000000000100E-005 ), #108, 'distance_accuracy_value', 'NONE');
#158 = DIRECTION ( 'NONE',  ( -2.224989899641220000E-032, -1.156908079756150000E-016, 1.000000000000000000 ) ) ;
#159 = COORDINATED_UNIVERSAL_TIME_OFFSET ( 2, 0, .AHEAD. ) ;
#160 = PERSON_AND_ORGANIZATION ( #30, #19 ) ;
#161 = DIRECTION ( 'NONE',  ( 2.224989899641220000E-032, 1.156908079756150000E-016, -1.000000000000000000 ) ) ;
#162 = ADVANCED_FACE ( 'NONE', ( #115 ), #126, .T. ) ;
#163 = ORIENTED_EDGE ( 'NONE', *, *, #134, .F. ) ;
#164 = AXIS2_PLACEMENT_3D ( 'NONE', #202, #119, #146 ) ;
#165 = CARTESIAN_POINT ( 'NONE',  ( -4.275337648649506900, -2.143117397621173500, -0.0002125407822452821100 ) ) ;
#166 = FACE_OUTER_BOUND ( 'NONE', #65, .T. ) ;
#167 = CALENDAR_DATE ( 2018, 13, 12 ) ;
#168 = APPLICATION_PROTOCOL_DEFINITION ( 'international standard', 'config_control_design', 1994, #58 ) ;
#169 = APPROVAL_PERSON_ORGANIZATION ( #155, #38, #63 ) ;
#170 = EDGE_LOOP ( 'NONE', ( #44, #141 ) ) ;
#171 = DATE_AND_TIME ( #21, #215 ) ;
#172 = COORDINATED_UNIVERSAL_TIME_OFFSET ( 2, 0, .AHEAD. ) ;
#173 = PERSON_AND_ORGANIZATION ( #30, #19 ) ;
#174 = DIRECTION ( 'NONE',  ( 1.000000000000000000, 0.0000000000000000000, -0.0000000000000000000 ) ) ;
#175 = CARTESIAN_POINT ( 'NONE',  ( 4.263256414560599900E-014, 1.421085471520200100E-014, 166.5999999999999900 ) ) ;
#176 = VECTOR ( 'NONE', #158, 1000.000000000000000 ) ;
#177 = DIRECTION ( 'NONE',  ( 2.224989899641220000E-032, 1.156908079756150000E-016, -1.000000000000000000 ) ) ;
#178 = DATE_AND_TIME ( #62, #70 ) ;
#179 = VERTEX_POINT ( 'NONE', #205 ) ;
#180 = PERSON_AND_ORGANIZATION_ROLE ( 'creator' ) ;
#181 = AXIS2_PLACEMENT_3D ( 'NONE', #85, #87, #22 ) ;
#182 = EDGE_CURVE ( 'NONE', #179, #34, #104, .T. ) ;
#183 = EDGE_LOOP ( 'NONE', ( #10, #140, #116, #36 ) ) ;
#184 = CC_DESIGN_APPROVAL ( #5, ( #206 ) ) ;
#185 = ORIENTED_EDGE ( 'NONE', *, *, #153, .T. ) ;
#186 = CARTESIAN_POINT ( 'NONE',  ( -2.135745669890320600, -6.426162410944539400, 0.1239823978596199100 ) ) ;
#187 =( NAMED_UNIT ( * ) PLANE_ANGLE_UNIT ( ) SI_UNIT ( $, .RADIAN. ) );
#188 = DIRECTION ( 'NONE',  ( 1.000000000000000000, 0.0000000000000000000, 0.0000000000000000000 ) ) ;
#189 = CARTESIAN_POINT ( 'NONE',  ( 2.498001805406599800E-016, 8.881784197001244400E-016, 3.000000000000000000 ) ) ;
#190 = CC_DESIGN_PERSON_AND_ORGANIZATION_ASSIGNMENT ( #193, #180, ( #206 ) ) ;
#191 = CARTESIAN_POINT ( 'NONE',  ( 6.405260182936713100, 6.426162410944548300, 0.2472510637198874200 ) ) ;
#192 = APPROVAL_STATUS ( 'not_yet_approved' ) ;
#193 = PERSON_AND_ORGANIZATION ( #30, #19 ) ;
#194 = PERSON_AND_ORGANIZATION_ROLE ( 'creator' ) ;
#195 = DATE_AND_TIME ( #130, #109 ) ;
#196 = APPROVAL_STATUS ( 'not_yet_approved' ) ;
#197 =( BOUNDED_SURFACE ( )  B_SPLINE_SURFACE ( 3, 3, ( 
 ( #73, #13, #127, #145 ),
 ( #143, #61, #147, #94 ),
 ( #209, #43, #41, #45 ),
 ( #106, #42, #124, #191 ) ),
 .UNSPECIFIED., .F., .F., .T. ) 
 B_SPLINE_SURFACE_WITH_KNOTS ( ( 4, 4 ),
 ( 4, 4 ),
 ( 0.0000000000000000000, 1.000000000000000000 ),
 ( 0.0000000000000000000, 1.000000000000000000 ),
 .UNSPECIFIED. ) 
 GEOMETRIC_REPRESENTATION_ITEM ( )  RATIONAL_B_SPLINE_SURFACE ( (
 ( 1.000000000000000000, 0.9998765787417184200, 0.9998765787417184200, 1.000000000000000000),
 ( 0.9995038719573445800, 0.9993805119318103200, 0.9993805119318103200, 0.9995038719573445800),
 ( 0.9995038719573445800, 0.9993805119318103200, 0.9993805119318103200, 0.9995038719573445800),
 ( 1.000000000000000000, 0.9998765787417184200, 0.9998765787417184200, 1.000000000000000000) ) ) 
 REPRESENTATION_ITEM ( '' )  SURFACE ( )  );
#198 = FACE_OUTER_BOUND ( 'NONE', #170, .T. ) ;
#199 = CC_DESIGN_PERSON_AND_ORGANIZATION_ASSIGNMENT ( #89, #112, ( #57 ) ) ;
#200 = LOCAL_TIME ( 16, 53, 43.00000000000000000, #77 ) ;
#201 = ORIENTED_EDGE ( 'NONE', *, *, #182, .T. ) ;
#202 = CARTESIAN_POINT ( 'NONE',  ( 2.498001805406600200E-016, 1.221245327087670000E-015, 0.1210598904474040100 ) ) ;
#203 = AXIS2_PLACEMENT_3D ( 'NONE', #11, #123, #83 ) ;
#204 = DIRECTION ( 'NONE',  ( 0.0000000000000000000, -1.000000000000000000, -6.664003749250640100E-016 ) ) ;
#205 = CARTESIAN_POINT ( 'NONE',  ( 1.027450897999229200E-015, 6.350000000000000500, 0.1210598904474047400 ) ) ;
#206 = PRODUCT_DEFINITION ( 'UNKNOWN', '', #57, #154 ) ;
#207 = VECTOR ( 'NONE', #69, 1000.000000000000000 ) ;
#208 = CARTESIAN_POINT ( 'NONE',  ( 0.0000000000000000000, 0.0000000000000000000, 0.0000000000000000000 ) ) ;
#209 = CARTESIAN_POINT ( 'NONE',  ( 2.187352738325134600E-016, 2.143117397621182400, -0.04134797984549470900 ) ) ;
#210 = APPROVAL_DATE_TIME ( #195, #38 ) ;
#211 = VERTEX_POINT ( 'NONE', #37 ) ;
#212 = DIRECTION ( 'NONE',  ( 0.0000000000000000000, -1.000000000000000000, -1.152498372327111000E-016 ) ) ;
#213 = SECURITY_CLASSIFICATION_LEVEL ( 'unclassified' ) ;
#214 = CC_DESIGN_SECURITY_CLASSIFICATION ( #98, ( #57 ) ) ;
#215 = LOCAL_TIME ( 16, 53, 43.00000000000000000, #82 ) ;
ENDSEC;
END-ISO-10303-21;
