ISO-10303-21;
HEADER;
FILE_DESCRIPTION (( 'STEP AP203' ),
    '1' );
FILE_NAME ('110-1129E UVFS pl-cx 12.7 F300.STEP',
    '2018-12-13T14:50:50',
    ( '' ),
    ( '' ),
    'SwSTEP 2.0',
    'SolidWorks 2017',
    '' );
FILE_SCHEMA (( 'CONFIG_CONTROL_DESIGN' ));
ENDSEC;

DATA;
#1 = CYLINDRICAL_SURFACE ( 'NONE', #48, 6.349999999999999600 ) ;
#2 = APPROVAL_PERSON_ORGANIZATION ( #90, #172, #176 ) ;
#3 = CC_DESIGN_PERSON_AND_ORGANIZATION_ASSIGNMENT ( #47, #123, ( #148 ) ) ;
#4 =( GEOMETRIC_REPRESENTATION_CONTEXT ( 3 ) GLOBAL_UNCERTAINTY_ASSIGNED_CONTEXT ( ( #58 ) ) GLOBAL_UNIT_ASSIGNED_CONTEXT ( ( #9, #44, #74 ) ) REPRESENTATION_CONTEXT ( 'NONE', 'WORKASPACE' ) );
#5 = ORIENTED_EDGE ( 'NONE', *, *, #87, .F. ) ;
#6 = LOCAL_TIME ( 16, 50, 50.00000000000000000, #152 ) ;
#7 = DIRECTION ( 'NONE',  ( 0.0000000000000000000, -1.000000000000000000, -1.152498372327111000E-016 ) ) ;
#8 = CARTESIAN_POINT ( 'NONE',  ( -5.204170427930421300E-015, 2.143497269760409600, -0.04825424777301463900 ) ) ;
#9 =( LENGTH_UNIT ( ) NAMED_UNIT ( * ) SI_UNIT ( .MILLI., .METRE. ) );
#10 = LINE ( 'NONE', #183, #142 ) ;
#11 = DIRECTION ( 'NONE',  ( -2.240708024523000100E-032, -1.165080892440510100E-016, 1.000000000000000000 ) ) ;
#12 = AXIS2_PLACEMENT_3D ( 'NONE', #23, #151, #7 ) ;
#13 = DIRECTION ( 'NONE',  ( 0.0000000000000000000, 0.0000000000000000000, 1.000000000000000000 ) ) ;
#14 = DATE_AND_TIME ( #35, #80 ) ;
#15 = AXIS2_PLACEMENT_3D ( 'NONE', #132, #69, #149 ) ;
#16 = EDGE_LOOP ( 'NONE', ( #21, #50, #192, #5 ) ) ;
#17 = CC_DESIGN_APPROVAL ( #155, ( #45 ) ) ;
#18 = FACE_OUTER_BOUND ( 'NONE', #66, .T. ) ;
#19 = EDGE_CURVE ( 'NONE', #167, #130, #165, .T. ) ;
#20 = AXIS2_PLACEMENT_3D ( 'NONE', #211, #199, #95 ) ;
#21 = ORIENTED_EDGE ( 'NONE', *, *, #53, .F. ) ;
#22 = CC_DESIGN_SECURITY_CLASSIFICATION ( #76, ( #148 ) ) ;
#23 = CARTESIAN_POINT ( 'NONE',  ( 2.498001805406600200E-016, 1.221245327087670000E-015, 0.1412550875341540000 ) ) ;
#24 = PERSON_AND_ORGANIZATION ( #70, #36 ) ;
#25 = EDGE_LOOP ( 'NONE', ( #68, #180, #177, #85 ) ) ;
#26 = CARTESIAN_POINT ( 'NONE',  ( 1.027450897999229200E-015, 6.350000000000000500, 3.000000000000000900 ) ) ;
#27 = CARTESIAN_POINT ( 'NONE',  ( 2.138290807766057600, -2.143497269760389100, -0.04825424777301803900 ) ) ;
#28 = FACE_OUTER_BOUND ( 'NONE', #25, .T. ) ;
#29 = CARTESIAN_POINT ( 'NONE',  ( 4.270267835973864800, 6.426148826400321000, 0.1926040842577346800 ) ) ;
#30 = CARTESIAN_POINT ( 'NONE',  ( 6.403518407107312300, -6.426148826400301500, 0.2884581401534985200 ) ) ;
#31 = SECURITY_CLASSIFICATION_LEVEL ( 'unclassified' ) ;
#32 = CC_DESIGN_APPROVAL ( #193, ( #148 ) ) ;
#33 = APPROVAL_STATUS ( 'not_yet_approved' ) ;
#34 = CC_DESIGN_PERSON_AND_ORGANIZATION_ASSIGNMENT ( #116, #75, ( #91 ) ) ;
#35 = CALENDAR_DATE ( 2018, 13, 12 ) ;
#36 = ORGANIZATION ( 'UNSPECIFIED', 'UNSPECIFIED', '' ) ;
#37 = ORIENTED_EDGE ( 'NONE', *, *, #19, .T. ) ;
#38 = CARTESIAN_POINT ( 'NONE',  ( -4.276042711125335800, 2.143497269760409100, -0.0002503077204401860900 ) ) ;
#39 = CC_DESIGN_APPROVAL ( #172, ( #76 ) ) ;
#40 = CARTESIAN_POINT ( 'NONE',  ( -2.135403006290109500, -6.426148826400301500, 0.1446649744183461900 ) ) ;
#41 = MECHANICAL_CONTEXT ( 'NONE', #138, 'mechanical' ) ;
#42 = AXIS2_PLACEMENT_3D ( 'NONE', #119, #13, #171 ) ;
#43 = CARTESIAN_POINT ( 'NONE',  ( 2.593927837381222700E-016, 6.426148826400321000, 0.1446649744183403600 ) ) ;
#44 =( NAMED_UNIT ( * ) PLANE_ANGLE_UNIT ( ) SI_UNIT ( $, .RADIAN. ) );
#45 = PRODUCT_DEFINITION ( 'UNKNOWN', '', #148, #65 ) ;
#46 = DIRECTION ( 'NONE',  ( 0.0000000000000000000, -1.000000000000000000, -1.365923996832131600E-016 ) ) ;
#47 = PERSON_AND_ORGANIZATION ( #70, #36 ) ;
#48 = AXIS2_PLACEMENT_3D ( 'NONE', #170, #213, #168 ) ;
#49 = ADVANCED_FACE ( 'NONE', ( #52 ), #106, .T. ) ;
#50 = ORIENTED_EDGE ( 'NONE', *, *, #112, .T. ) ;
#51 = PERSON_AND_ORGANIZATION ( #70, #36 ) ;
#52 = FACE_OUTER_BOUND ( 'NONE', #101, .T. ) ;
#53 = EDGE_CURVE ( 'NONE', #130, #167, #200, .T. ) ;
#54 = CARTESIAN_POINT ( 'NONE',  ( 2.498001805406600200E-016, 1.221245327087670000E-015, 0.1412550875341540000 ) ) ;
#55 = CARTESIAN_POINT ( 'NONE',  ( -5.204170427930421300E-015, -6.426148826400301500, 0.1446649744183461400 ) ) ;
#56 = CC_DESIGN_PERSON_AND_ORGANIZATION_ASSIGNMENT ( #182, #203, ( #45 ) ) ;
#57 = CARTESIAN_POINT ( 'NONE',  ( -4.270267835973857700, -6.426148826400301500, 0.1926040842577279900 ) ) ;
#58 = UNCERTAINTY_MEASURE_WITH_UNIT (LENGTH_MEASURE( 1.000000000000000100E-005 ), #9, 'distance_accuracy_value', 'NONE');
#59 = APPROVAL_PERSON_ORGANIZATION ( #24, #193, #84 ) ;
#60 = CARTESIAN_POINT ( 'NONE',  ( 4.276042711125343000, -2.143497269760389100, -0.0002503077204311059000 ) ) ;
#61 = ORIENTED_EDGE ( 'NONE', *, *, #103, .F. ) ;
#62 = CARTESIAN_POINT ( 'NONE',  ( 0.0000000000000000000, -2.842170943040400100E-014, 142.8000000000000100 ) ) ;
#63 = CARTESIAN_POINT ( 'NONE',  ( 2.135403006290110400, -6.426148826400301500, 0.1446649744183403400 ) ) ;
#64 = CARTESIAN_POINT ( 'NONE',  ( 2.498001805406599800E-016, -6.349999999999998800, 2.999999999999999100 ) ) ;
#65 = DESIGN_CONTEXT ( 'detailed design', #98, 'design' ) ;
#66 = EDGE_LOOP ( 'NONE', ( #129, #212 ) ) ;
#67 = COORDINATED_UNIVERSAL_TIME_OFFSET ( 2, 0, .AHEAD. ) ;
#68 = ORIENTED_EDGE ( 'NONE', *, *, #112, .F. ) ;
#69 = DIRECTION ( 'NONE',  ( -2.240708024523000100E-032, -1.165080892440510100E-016, 1.000000000000000000 ) ) ;
#70 = PERSON ( 'UNSPECIFIED', 'UNSPECIFIED', 'UNSPECIFIED', ('UNSPECIFIED'), ('UNSPECIFIED'), ('UNSPECIFIED') ) ;
#71 = CARTESIAN_POINT ( 'NONE',  ( -6.412178172899905900, -2.143497269760389600, 0.09573337592394058600 ) ) ;
#72 = ADVANCED_BREP_SHAPE_REPRESENTATION ( '110-1129E UVFS pl-cx 12.7 F300', ( #140, #42 ), #4 ) ;
#73 = CIRCLE ( 'NONE', #190, 6.349999999999999600 ) ;
#74 =( NAMED_UNIT ( * ) SI_UNIT ( $, .STERADIAN. ) SOLID_ANGLE_UNIT ( ) );
#75 = PERSON_AND_ORGANIZATION_ROLE ( 'design_owner' ) ;
#76 = SECURITY_CLASSIFICATION ( '', '', #31 ) ;
#77 = CARTESIAN_POINT ( 'NONE',  ( 2.135403006290110400, 6.426148826400321000, 0.1446649744183403400 ) ) ;
#78 = EDGE_LOOP ( 'NONE', ( #93, #61 ) ) ;
#79 = CARTESIAN_POINT ( 'NONE',  ( 4.270267835973864800, -6.426148826400301500, 0.1926040842577346800 ) ) ;
#80 = LOCAL_TIME ( 16, 50, 50.00000000000000000, #197 ) ;
#81 = SHAPE_DEFINITION_REPRESENTATION ( #96, #72 ) ;
#82 = DATE_TIME_ROLE ( 'creation_date' ) ;
#83 = ADVANCED_FACE ( 'NONE', ( #205 ), #109, .T. ) ;
#84 = APPROVAL_ROLE ( '' ) ;
#85 = ORIENTED_EDGE ( 'NONE', *, *, #99, .T. ) ;
#86 = CALENDAR_DATE ( 2018, 13, 12 ) ;
#87 = EDGE_CURVE ( 'NONE', #167, #120, #10, .T. ) ;
#88 = DIRECTION ( 'NONE',  ( -2.240708024523000100E-032, -1.165080892440510100E-016, 1.000000000000000000 ) ) ;
#89 = DIRECTION ( 'NONE',  ( 0.0000000000000000000, -1.000000000000000000, -1.152498372327111000E-016 ) ) ;
#90 = PERSON_AND_ORGANIZATION ( #70, #36 ) ;
#91 = PRODUCT ( '110-1129E UVFS pl-cx 12.7 F300', '110-1129E UVFS pl-cx 12.7 F300', '', ( #41 ) ) ;
#92 = DIRECTION ( 'NONE',  ( 2.240708024523000100E-032, 1.165080892440510100E-016, -1.000000000000000000 ) ) ;
#93 = ORIENTED_EDGE ( 'NONE', *, *, #99, .F. ) ;
#94 = CARTESIAN_POINT ( 'NONE',  ( 4.276042711125343000, 2.143497269760409100, -0.0002503077204334369300 ) ) ;
#95 = DIRECTION ( 'NONE',  ( 1.000000000000000000, 0.0000000000000000000, -0.0000000000000000000 ) ) ;
#96 = PRODUCT_DEFINITION_SHAPE ( 'NONE', 'NONE',  #45 ) ;
#97 = CARTESIAN_POINT ( 'NONE',  ( 1.027450897999229200E-015, 6.350000000000000500, 0.1412550875341547500 ) ) ;
#98 = APPLICATION_CONTEXT ( 'configuration controlled 3d designs of mechanical parts and assemblies' ) ;
#99 = EDGE_CURVE ( 'NONE', #120, #174, #73, .T. ) ;
#100 = APPROVAL_STATUS ( 'not_yet_approved' ) ;
#101 = EDGE_LOOP ( 'NONE', ( #127, #37 ) ) ;
#102 = DATE_TIME_ROLE ( 'classification_date' ) ;
#103 = EDGE_CURVE ( 'NONE', #174, #120, #206, .T. ) ;
#104 = ADVANCED_FACE ( 'NONE', ( #169 ), #134, .T. ) ;
#105 = CC_DESIGN_PERSON_AND_ORGANIZATION_ASSIGNMENT ( #166, #173, ( #76 ) ) ;
#106 =( BOUNDED_SURFACE ( )  B_SPLINE_SURFACE ( 3, 3, ( 
 ( #115, #57, #40, #55 ),
 ( #71, #195, #194, #207 ),
 ( #111, #38, #113, #8 ),
 ( #208, #196, #108, #110 ) ),
 .UNSPECIFIED., .F., .F., .T. ) 
 B_SPLINE_SURFACE_WITH_KNOTS ( ( 4, 4 ),
 ( 4, 4 ),
 ( 0.0000000000000000000, 1.000000000000000000 ),
 ( 0.0000000000000000000, 1.000000000000000000 ),
 .UNSPECIFIED. ) 
 GEOMETRIC_REPRESENTATION_ITEM ( )  RATIONAL_B_SPLINE_SURFACE ( (
 ( 1.000000000000000000, 0.9998319828139324800, 0.9998319828139324800, 1.000000000000000000),
 ( 0.9993246266367024100, 0.9991567229249669300, 0.9991567229249669300, 0.9993246266367024100),
 ( 0.9993246266367024100, 0.9991567229249669300, 0.9991567229249669300, 0.9993246266367024100),
 ( 1.000000000000000000, 0.9998319828139324800, 0.9998319828139324800, 1.000000000000000000) ) ) 
 REPRESENTATION_ITEM ( '' )  SURFACE ( )  );
#107 = DATE_AND_TIME ( #191, #126 ) ;
#108 = CARTESIAN_POINT ( 'NONE',  ( -2.135403006290109500, 6.426148826400321000, 0.1446649744183461900 ) ) ;
#109 = CYLINDRICAL_SURFACE ( 'NONE', #15, 6.349999999999999600 ) ;
#110 = CARTESIAN_POINT ( 'NONE',  ( -5.204170427930421300E-015, 6.426148826400321000, 0.1446649744183461400 ) ) ;
#111 = CARTESIAN_POINT ( 'NONE',  ( -6.412178172899906800, 2.143497269760409600, 0.09573337592393825500 ) ) ;
#112 = EDGE_CURVE ( 'NONE', #130, #174, #189, .T. ) ;
#113 = CARTESIAN_POINT ( 'NONE',  ( -2.138290807766056300, 2.143497269760409100, -0.04825424777301455500 ) ) ;
#114 = CALENDAR_DATE ( 2018, 13, 12 ) ;
#115 = CARTESIAN_POINT ( 'NONE',  ( -6.403518407107299900, -6.426148826400301500, 0.2884581401534913600 ) ) ;
#116 = PERSON_AND_ORGANIZATION ( #70, #36 ) ;
#117 = CARTESIAN_POINT ( 'NONE',  ( 2.498001805406599800E-016, 8.881784197001223700E-016, 3.000000000000000000 ) ) ;
#118 = DIRECTION ( 'NONE',  ( 0.0000000000000000000, -1.000000000000000000, -1.365923996832131600E-016 ) ) ;
#119 = CARTESIAN_POINT ( 'NONE',  ( 0.0000000000000000000, 0.0000000000000000000, 0.0000000000000000000 ) ) ;
#120 = VERTEX_POINT ( 'NONE', #64 ) ;
#121 = EDGE_CURVE ( 'NONE', #167, #130, #202, .T. ) ;
#122 = DIRECTION ( 'NONE',  ( 2.240708024523000100E-032, 1.165080892440510100E-016, -1.000000000000000000 ) ) ;
#123 = PERSON_AND_ORGANIZATION_ROLE ( 'creator' ) ;
#124 =( BOUNDED_SURFACE ( )  B_SPLINE_SURFACE ( 3, 3, ( 
 ( #156, #63, #79, #30 ),
 ( #184, #27, #60, #136 ),
 ( #154, #201, #94, #198 ),
 ( #43, #77, #29, #186 ) ),
 .UNSPECIFIED., .F., .F., .T. ) 
 B_SPLINE_SURFACE_WITH_KNOTS ( ( 4, 4 ),
 ( 4, 4 ),
 ( 0.0000000000000000000, 1.000000000000000000 ),
 ( 0.0000000000000000000, 1.000000000000000000 ),
 .UNSPECIFIED. ) 
 GEOMETRIC_REPRESENTATION_ITEM ( )  RATIONAL_B_SPLINE_SURFACE ( (
 ( 1.000000000000000000, 0.9998319828139324800, 0.9998319828139324800, 1.000000000000000000),
 ( 0.9993246266367024100, 0.9991567229249669300, 0.9991567229249669300, 0.9993246266367024100),
 ( 0.9993246266367024100, 0.9991567229249669300, 0.9991567229249669300, 0.9993246266367024100),
 ( 1.000000000000000000, 0.9998319828139324800, 0.9998319828139324800, 1.000000000000000000) ) ) 
 REPRESENTATION_ITEM ( '' )  SURFACE ( )  );
#125 = CC_DESIGN_DATE_AND_TIME_ASSIGNMENT ( #144, #102, ( #76 ) ) ;
#126 = LOCAL_TIME ( 16, 50, 50.00000000000000000, #135 ) ;
#127 = ORIENTED_EDGE ( 'NONE', *, *, #121, .F. ) ;
#128 = CALENDAR_DATE ( 2018, 13, 12 ) ;
#129 = ORIENTED_EDGE ( 'NONE', *, *, #53, .T. ) ;
#130 = VERTEX_POINT ( 'NONE', #210 ) ;
#131 = PRODUCT_RELATED_PRODUCT_CATEGORY ( 'detail', '', ( #91 ) ) ;
#132 = CARTESIAN_POINT ( 'NONE',  ( 2.498001805406600200E-016, 1.221245327087670000E-015, 0.1412550875341540000 ) ) ;
#133 = COORDINATED_UNIVERSAL_TIME_OFFSET ( 2, 0, .AHEAD. ) ;
#134 = PLANE ( 'NONE',  #20 ) ;
#135 = COORDINATED_UNIVERSAL_TIME_OFFSET ( 2, 0, .AHEAD. ) ;
#136 = CARTESIAN_POINT ( 'NONE',  ( 6.412178172899918300, -2.143497269760389600, 0.09573337592394777500 ) ) ;
#137 = CARTESIAN_POINT ( 'NONE',  ( 2.498001805406599800E-016, 8.881784197001223700E-016, 3.000000000000000000 ) ) ;
#138 = APPLICATION_CONTEXT ( 'configuration controlled 3d designs of mechanical parts and assemblies' ) ;
#139 = DIRECTION ( 'NONE',  ( 1.000000000000000000, 0.0000000000000000000, 2.056625150099659900E-016 ) ) ;
#140 = MANIFOLD_SOLID_BREP ( 'Imported1', #159 ) ;
#141 = DATE_AND_TIME ( #114, #6 ) ;
#142 = VECTOR ( 'NONE', #88, 1000.000000000000000 ) ;
#143 = ADVANCED_FACE ( 'NONE', ( #18 ), #124, .T. ) ;
#144 = DATE_AND_TIME ( #128, #187 ) ;
#145 = AXIS2_PLACEMENT_3D ( 'NONE', #62, #139, #157 ) ;
#146 = APPROVAL_PERSON_ORGANIZATION ( #51, #155, #158 ) ;
#147 = APPROVAL_DATE_TIME ( #215, #193 ) ;
#148 = PRODUCT_DEFINITION_FORMATION_WITH_SPECIFIED_SOURCE ( 'ANY', '', #91, .NOT_KNOWN. ) ;
#149 = DIRECTION ( 'NONE',  ( 0.0000000000000000000, -1.000000000000000000, -1.152498372327111000E-016 ) ) ;
#150 = AXIS2_PLACEMENT_3D ( 'NONE', #54, #181, #89 ) ;
#151 = DIRECTION ( 'NONE',  ( 2.240708024523000100E-032, 1.165080892440510100E-016, -1.000000000000000000 ) ) ;
#152 = COORDINATED_UNIVERSAL_TIME_OFFSET ( 2, 0, .AHEAD. ) ;
#153 = APPLICATION_PROTOCOL_DEFINITION ( 'international standard', 'config_control_design', 1994, #138 ) ;
#154 = CARTESIAN_POINT ( 'NONE',  ( 2.597435722597842700E-016, 2.143497269760409600, -0.04825424777302037000 ) ) ;
#155 = APPROVAL ( #33, 'UNSPECIFIED' ) ;
#156 = CARTESIAN_POINT ( 'NONE',  ( 2.593927837381222700E-016, -6.426148826400301500, 0.1446649744183403600 ) ) ;
#157 = DIRECTION ( 'NONE',  ( 0.0000000000000000000, -1.000000000000000000, 0.0000000000000000000 ) ) ;
#158 = APPROVAL_ROLE ( '' ) ;
#159 = CLOSED_SHELL ( 'NONE', ( #143, #83, #49, #175, #104 ) ) ;
#160 = APPROVAL_STATUS ( 'not_yet_approved' ) ;
#161 = CC_DESIGN_PERSON_AND_ORGANIZATION_ASSIGNMENT ( #179, #204, ( #148 ) ) ;
#162 = AXIS2_PLACEMENT_3D ( 'NONE', #117, #92, #118 ) ;
#163 = LOCAL_TIME ( 16, 50, 50.00000000000000000, #133 ) ;
#164 = VECTOR ( 'NONE', #11, 1000.000000000000000 ) ;
#165 = CIRCLE ( 'NONE', #150, 6.349999999999999600 ) ;
#166 = PERSON_AND_ORGANIZATION ( #70, #36 ) ;
#167 = VERTEX_POINT ( 'NONE', #214 ) ;
#168 = DIRECTION ( 'NONE',  ( 0.0000000000000000000, -1.000000000000000000, -1.152498372327111000E-016 ) ) ;
#169 = FACE_OUTER_BOUND ( 'NONE', #78, .T. ) ;
#170 = CARTESIAN_POINT ( 'NONE',  ( 2.498001805406600200E-016, 1.221245327087670000E-015, 0.1412550875341540000 ) ) ;
#171 = DIRECTION ( 'NONE',  ( 1.000000000000000000, 0.0000000000000000000, 0.0000000000000000000 ) ) ;
#172 = APPROVAL ( #160, 'UNSPECIFIED' ) ;
#173 = PERSON_AND_ORGANIZATION_ROLE ( 'classification_officer' ) ;
#174 = VERTEX_POINT ( 'NONE', #26 ) ;
#175 = ADVANCED_FACE ( 'NONE', ( #28 ), #1, .T. ) ;
#176 = APPROVAL_ROLE ( '' ) ;
#177 = ORIENTED_EDGE ( 'NONE', *, *, #87, .T. ) ;
#178 = CC_DESIGN_DATE_AND_TIME_ASSIGNMENT ( #141, #82, ( #45 ) ) ;
#179 = PERSON_AND_ORGANIZATION ( #70, #36 ) ;
#180 = ORIENTED_EDGE ( 'NONE', *, *, #19, .F. ) ;
#181 = DIRECTION ( 'NONE',  ( 2.240708024523000100E-032, 1.165080892440510100E-016, -1.000000000000000000 ) ) ;
#182 = PERSON_AND_ORGANIZATION ( #70, #36 ) ;
#183 = CARTESIAN_POINT ( 'NONE',  ( 2.498001805406600200E-016, -6.349999999999998800, 0.1412550875341532800 ) ) ;
#184 = CARTESIAN_POINT ( 'NONE',  ( 2.597435722597842700E-016, -2.143497269760389600, -0.04825424777301805200 ) ) ;
#185 = APPROVAL_DATE_TIME ( #107, #155 ) ;
#186 = CARTESIAN_POINT ( 'NONE',  ( 6.403518407107312300, 6.426148826400321000, 0.2884581401534985200 ) ) ;
#187 = LOCAL_TIME ( 16, 50, 50.00000000000000000, #67 ) ;
#188 = APPLICATION_PROTOCOL_DEFINITION ( 'international standard', 'config_control_design', 1994, #98 ) ;
#189 = LINE ( 'NONE', #97, #164 ) ;
#190 = AXIS2_PLACEMENT_3D ( 'NONE', #137, #122, #46 ) ;
#191 = CALENDAR_DATE ( 2018, 13, 12 ) ;
#192 = ORIENTED_EDGE ( 'NONE', *, *, #103, .T. ) ;
#193 = APPROVAL ( #100, 'UNSPECIFIED' ) ;
#194 = CARTESIAN_POINT ( 'NONE',  ( -2.138290807766055400, -2.143497269760389100, -0.04825424777301221000 ) ) ;
#195 = CARTESIAN_POINT ( 'NONE',  ( -4.276042711125335800, -2.143497269760389100, -0.0002503077204378415600 ) ) ;
#196 = CARTESIAN_POINT ( 'NONE',  ( -4.270267835973857700, 6.426148826400321000, 0.1926040842577279900 ) ) ;
#197 = COORDINATED_UNIVERSAL_TIME_OFFSET ( 2, 0, .AHEAD. ) ;
#198 = CARTESIAN_POINT ( 'NONE',  ( 6.412178172899918300, 2.143497269760409600, 0.09573337592394547100 ) ) ;
#199 = DIRECTION ( 'NONE',  ( 0.0000000000000000000, 0.0000000000000000000, 1.000000000000000000 ) ) ;
#200 = CIRCLE ( 'NONE', #12, 6.349999999999999600 ) ;
#201 = CARTESIAN_POINT ( 'NONE',  ( 2.138290807766057600, 2.143497269760409100, -0.04825424777302036300 ) ) ;
#202 = CIRCLE ( 'NONE', #145, 142.7999999999999800 ) ;
#203 = PERSON_AND_ORGANIZATION_ROLE ( 'creator' ) ;
#204 = PERSON_AND_ORGANIZATION_ROLE ( 'design_supplier' ) ;
#205 = FACE_OUTER_BOUND ( 'NONE', #16, .T. ) ;
#206 = CIRCLE ( 'NONE', #162, 6.349999999999999600 ) ;
#207 = CARTESIAN_POINT ( 'NONE',  ( -4.336808689942016900E-015, -2.143497269760389600, -0.04825424777301227200 ) ) ;
#208 = CARTESIAN_POINT ( 'NONE',  ( -6.403518407107299900, 6.426148826400321000, 0.2884581401534913600 ) ) ;
#209 = APPROVAL_DATE_TIME ( #14, #172 ) ;
#210 = CARTESIAN_POINT ( 'NONE',  ( 1.027450897999229200E-015, 6.350000000000000500, 0.1412550875341547500 ) ) ;
#211 = CARTESIAN_POINT ( 'NONE',  ( 0.0000000000000000000, 13.15799999999999900, 3.000000000000000000 ) ) ;
#212 = ORIENTED_EDGE ( 'NONE', *, *, #121, .T. ) ;
#213 = DIRECTION ( 'NONE',  ( -2.240708024523000100E-032, -1.165080892440510100E-016, 1.000000000000000000 ) ) ;
#214 = CARTESIAN_POINT ( 'NONE',  ( 2.498001805406600200E-016, -6.349999999999998800, 0.1412550875341532800 ) ) ;
#215 = DATE_AND_TIME ( #86, #163 ) ;
ENDSEC;
END-ISO-10303-21;
