ISO-10303-21;
HEADER;
FILE_DESCRIPTION (( 'STEP AP203' ),
    '1' );
FILE_NAME ('110-1127E UVFS pl-cx 12.7 F250.STEP',
    '2018-12-13T14:51:06',
    ( '' ),
    ( '' ),
    'SwSTEP 2.0',
    'SolidWorks 2017',
    '' );
FILE_SCHEMA (( 'CONFIG_CONTROL_DESIGN' ));
ENDSEC;

DATA;
#1 = AXIS2_PLACEMENT_3D ( 'NONE', #187, #186, #64 ) ;
#2 = COORDINATED_UNIVERSAL_TIME_OFFSET ( 2, 0, .AHEAD. ) ;
#3 = CIRCLE ( 'NONE', #22, 6.349999999999999600 ) ;
#4 = CIRCLE ( 'NONE', #90, 119.0000000000000000 ) ;
#5 = CC_DESIGN_PERSON_AND_ORGANIZATION_ASSIGNMENT ( #135, #95, ( #97 ) ) ;
#6 = CALENDAR_DATE ( 2018, 13, 12 ) ;
#7 = ADVANCED_FACE ( 'NONE', ( #88 ), #204, .T. ) ;
#8 = CARTESIAN_POINT ( 'NONE',  ( 2.498001805406600200E-016, -6.349999999999998800, 0.1695430455642812600 ) ) ;
#9 = DIRECTION ( 'NONE',  ( 1.000000000000000000, 0.0000000000000000000, -0.0000000000000000000 ) ) ;
#10 = CARTESIAN_POINT ( 'NONE',  ( 2.815227439300578300E-016, -6.426126284397923000, 0.1736354970961612200 ) ) ;
#11 = CARTESIAN_POINT ( 'NONE',  ( -4.268893743856388300, -6.426126284397923900, 0.2311532222182028400 ) ) ;
#12 =( BOUNDED_SURFACE ( )  B_SPLINE_SURFACE ( 3, 3, ( 
 ( #10, #107, #155, #73 ),
 ( #75, #76, #206, #138 ),
 ( #139, #108, #203, #40 ),
 ( #109, #57, #140, #89 ) ),
 .UNSPECIFIED., .F., .F., .F. ) 
 B_SPLINE_SURFACE_WITH_KNOTS ( ( 4, 4 ),
 ( 4, 4 ),
 ( 0.0000000000000000000, 1.000000000000000000 ),
 ( 0.0000000000000000000, 1.000000000000000000 ),
 .UNSPECIFIED. ) 
 GEOMETRIC_REPRESENTATION_ITEM ( )  RATIONAL_B_SPLINE_SURFACE ( (
 ( 1.000000000000000000, 0.9997579903888741400, 0.9997579903888741400, 1.000000000000000000),
 ( 0.9990272521171084100, 0.9987854779203194600, 0.9987854779203194600, 0.9990272521171084100),
 ( 0.9990272521171084100, 0.9987854779203194600, 0.9987854779203194600, 0.9990272521171084100),
 ( 1.000000000000000000, 0.9997579903888741400, 0.9997579903888741400, 1.000000000000000000) ) ) 
 REPRESENTATION_ITEM ( '' )  SURFACE ( )  );
#13 = CARTESIAN_POINT ( 'NONE',  ( -6.400628763664828500, -6.426126284397924800, 0.3461469129353994500 ) ) ;
#14 = DATE_AND_TIME ( #172, #83 ) ;
#15 = CARTESIAN_POINT ( 'NONE',  ( -4.277213019057903400, 2.144127790568235000, -0.0003050386328242528400 ) ) ;
#16 = PERSON ( 'UNSPECIFIED', 'UNSPECIFIED', 'UNSPECIFIED', ('UNSPECIFIED'), ('UNSPECIFIED'), ('UNSPECIFIED') ) ;
#17 = APPROVAL_ROLE ( '' ) ;
#18 = CARTESIAN_POINT ( 'NONE',  ( 2.498001805406599800E-016, 8.881784197001219800E-016, 3.000000000000000000 ) ) ;
#19 = CC_DESIGN_PERSON_AND_ORGANIZATION_ASSIGNMENT ( #49, #145, ( #150 ) ) ;
#20 = DIRECTION ( 'NONE',  ( 0.0000000000000000000, -1.000000000000000000, -1.365923996832131600E-016 ) ) ;
#21 = FACE_OUTER_BOUND ( 'NONE', #151, .T. ) ;
#22 = AXIS2_PLACEMENT_3D ( 'NONE', #24, #61, #158 ) ;
#23 = ORIENTED_EDGE ( 'NONE', *, *, #189, .T. ) ;
#24 = CARTESIAN_POINT ( 'NONE',  ( 2.498001805406599800E-016, 8.881784197001219800E-016, 3.000000000000000000 ) ) ;
#25 = ORIENTED_EDGE ( 'NONE', *, *, #183, .T. ) ;
#26 = FACE_OUTER_BOUND ( 'NONE', #102, .T. ) ;
#27 = ORIENTED_EDGE ( 'NONE', *, *, #190, .F. ) ;
#28 = APPROVAL ( #165, 'UNSPECIFIED' ) ;
#29 = CARTESIAN_POINT ( 'NONE',  ( -4.268893743856391900, 6.426126284397930100, 0.2311532222181889600 ) ) ;
#30 = PERSON_AND_ORGANIZATION_ROLE ( 'creator' ) ;
#31 = DATE_TIME_ROLE ( 'creation_date' ) ;
#32 = DIRECTION ( 'NONE',  ( 1.000000000000000000, 0.0000000000000000000, 0.0000000000000000000 ) ) ;
#33 = DIRECTION ( 'NONE',  ( 1.000000000000000000, 2.441897141834629800E-016, -3.576540790375509800E-017 ) ) ;
#34 = AXIS2_PLACEMENT_3D ( 'NONE', #98, #193, #211 ) ;
#35 = FACE_OUTER_BOUND ( 'NONE', #70, .T. ) ;
#36 = APPROVAL ( #66, 'UNSPECIFIED' ) ;
#37 = DIRECTION ( 'NONE',  ( 0.0000000000000000000, 0.0000000000000000000, 1.000000000000000000 ) ) ;
#38 = APPROVAL_DATE_TIME ( #91, #36 ) ;
#39 = ORIENTED_EDGE ( 'NONE', *, *, #120, .T. ) ;
#40 = CARTESIAN_POINT ( 'NONE',  ( 6.413102391574687600, 2.144127790568237700, 0.1149127532723782700 ) ) ;
#41 = DIRECTION ( 'NONE',  ( 0.0000000000000000000, -1.000000000000000000, -1.195183497228115300E-016 ) ) ;
#42 = PERSON_AND_ORGANIZATION ( #16, #85 ) ;
#43 = CARTESIAN_POINT ( 'NONE',  ( -6.413102391574703600, -2.144127790568230100, 0.1149127532724014100 ) ) ;
#44 = APPROVAL_PERSON_ORGANIZATION ( #110, #28, #50 ) ;
#45 = EDGE_LOOP ( 'NONE', ( #117, #111 ) ) ;
#46 =( GEOMETRIC_REPRESENTATION_CONTEXT ( 3 ) GLOBAL_UNCERTAINTY_ASSIGNED_CONTEXT ( ( #149 ) ) GLOBAL_UNIT_ASSIGNED_CONTEXT ( ( #143, #180, #82 ) ) REPRESENTATION_CONTEXT ( 'NONE', 'WORKASPACE' ) );
#47 = CARTESIAN_POINT ( 'NONE',  ( -6.071532165918824000E-015, 2.144127790568235900, -0.05793485503961765000 ) ) ;
#48 = DATE_TIME_ROLE ( 'classification_date' ) ;
#49 = PERSON_AND_ORGANIZATION ( #16, #85 ) ;
#50 = APPROVAL_ROLE ( '' ) ;
#51 = DIRECTION ( 'NONE',  ( -2.263101954399279900E-032, -1.176724863685299900E-016, 1.000000000000000000 ) ) ;
#52 = PRODUCT_RELATED_PRODUCT_CATEGORY ( 'detail', '', ( #97 ) ) ;
#53 = DIRECTION ( 'NONE',  ( 0.0000000000000000000, -1.000000000000000000, -1.195183497228115300E-016 ) ) ;
#54 = CALENDAR_DATE ( 2018, 13, 12 ) ;
#55 = CLOSED_SHELL ( 'NONE', ( #72, #137, #174, #205, #7 ) ) ;
#56 = DIRECTION ( 'NONE',  ( 2.263101954399279900E-032, 1.176724863685299900E-016, -1.000000000000000000 ) ) ;
#57 = CARTESIAN_POINT ( 'NONE',  ( 2.134834359753102100, 6.426126284397931900, 0.1736354970961467800 ) ) ;
#58 = CC_DESIGN_APPROVAL ( #36, ( #150 ) ) ;
#59 = ORIENTED_EDGE ( 'NONE', *, *, #183, .F. ) ;
#60 = CARTESIAN_POINT ( 'NONE',  ( 1.027450897999229200E-015, 6.350000000000000500, 3.000000000000000900 ) ) ;
#61 = DIRECTION ( 'NONE',  ( 2.263101954399279900E-032, 1.176724863685299900E-016, -1.000000000000000000 ) ) ;
#62 = EDGE_CURVE ( 'NONE', #96, #191, #67, .T. ) ;
#63 = PERSON_AND_ORGANIZATION ( #16, #85 ) ;
#64 = DIRECTION ( 'NONE',  ( 0.0000000000000000000, -1.000000000000000000, -1.195183497228115300E-016 ) ) ;
#65 = ORIENTED_EDGE ( 'NONE', *, *, #62, .T. ) ;
#66 = APPROVAL_STATUS ( 'not_yet_approved' ) ;
#67 = CIRCLE ( 'NONE', #127, 6.349999999999999600 ) ;
#68 = CARTESIAN_POINT ( 'NONE',  ( -2.134834359753116300, 6.426126284397930100, 0.1736354970961567200 ) ) ;
#69 = SECURITY_CLASSIFICATION ( '', '', #144 ) ;
#70 = EDGE_LOOP ( 'NONE', ( #182, #65 ) ) ;
#71 = EDGE_CURVE ( 'NONE', #74, #134, #3, .T. ) ;
#72 = ADVANCED_FACE ( 'NONE', ( #21 ), #12, .T. ) ;
#73 = CARTESIAN_POINT ( 'NONE',  ( 6.400628763664815100, -6.426126284397921200, 0.3461469129353889100 ) ) ;
#74 = VERTEX_POINT ( 'NONE', #92 ) ;
#75 = CARTESIAN_POINT ( 'NONE',  ( -8.219952686625758800E-016, -2.144127790568228300, -0.05793485503961380600 ) ) ;
#76 = CARTESIAN_POINT ( 'NONE',  ( 2.138994752495132300, -2.144127790568228300, -0.05793485503961434700 ) ) ;
#77 = LOCAL_TIME ( 16, 51, 6.000000000000000000, #175 ) ;
#78 = CARTESIAN_POINT ( 'NONE',  ( -6.413102391574705400, 2.144127790568234500, 0.1149127532723888100 ) ) ;
#79 = LOCAL_TIME ( 16, 51, 6.000000000000000000, #2 ) ;
#80 = CC_DESIGN_APPROVAL ( #28, ( #69 ) ) ;
#81 = CARTESIAN_POINT ( 'NONE',  ( 2.842170943040400100E-014, 2.131628207280299900E-014, 119.0000000000000100 ) ) ;
#82 =( NAMED_UNIT ( * ) SI_UNIT ( $, .STERADIAN. ) SOLID_ANGLE_UNIT ( ) );
#83 = LOCAL_TIME ( 16, 51, 6.000000000000000000, #101 ) ;
#84 =( BOUNDED_SURFACE ( )  B_SPLINE_SURFACE ( 3, 3, ( 
 ( #13, #11, #176, #113 ),
 ( #43, #209, #128, #162 ),
 ( #78, #15, #148, #47 ),
 ( #192, #29, #68, #166 ) ),
 .UNSPECIFIED., .F., .F., .F. ) 
 B_SPLINE_SURFACE_WITH_KNOTS ( ( 4, 4 ),
 ( 4, 4 ),
 ( 0.0000000000000000000, 1.000000000000000000 ),
 ( 0.0000000000000000000, 1.000000000000000000 ),
 .UNSPECIFIED. ) 
 GEOMETRIC_REPRESENTATION_ITEM ( )  RATIONAL_B_SPLINE_SURFACE ( (
 ( 1.000000000000000000, 0.9997579903888741400, 0.9997579903888741400, 1.000000000000000000),
 ( 0.9990272521171084100, 0.9987854779203194600, 0.9987854779203194600, 0.9990272521171084100),
 ( 0.9990272521171084100, 0.9987854779203194600, 0.9987854779203194600, 0.9990272521171084100),
 ( 1.000000000000000000, 0.9997579903888741400, 0.9997579903888741400, 1.000000000000000000) ) ) 
 REPRESENTATION_ITEM ( '' )  SURFACE ( )  );
#85 = ORGANIZATION ( 'UNSPECIFIED', 'UNSPECIFIED', '' ) ;
#86 = PRODUCT_DEFINITION ( 'UNKNOWN', '', #150, #159 ) ;
#87 = LOCAL_TIME ( 16, 51, 6.000000000000000000, #207 ) ;
#88 = FACE_OUTER_BOUND ( 'NONE', #45, .T. ) ;
#89 = CARTESIAN_POINT ( 'NONE',  ( 6.400628763664812500, 6.426126284397931900, 0.3461469129353750800 ) ) ;
#90 = AXIS2_PLACEMENT_3D ( 'NONE', #81, #33, #100 ) ;
#91 = DATE_AND_TIME ( #54, #77 ) ;
#92 = CARTESIAN_POINT ( 'NONE',  ( 2.498001805406599800E-016, -6.349999999999998800, 2.999999999999999100 ) ) ;
#93 = PERSON_AND_ORGANIZATION ( #16, #85 ) ;
#94 = MANIFOLD_SOLID_BREP ( 'Imported1', #55 ) ;
#95 = PERSON_AND_ORGANIZATION_ROLE ( 'design_owner' ) ;
#96 = VERTEX_POINT ( 'NONE', #8 ) ;
#97 = PRODUCT ( '110-1127E UVFS pl-cx 12.7 F250', '110-1127E UVFS pl-cx 12.7 F250', '', ( #194 ) ) ;
#98 = CARTESIAN_POINT ( 'NONE',  ( 2.498001805406600200E-016, 1.221245327087670000E-015, 0.1695430455642820400 ) ) ;
#99 = APPROVAL_STATUS ( 'not_yet_approved' ) ;
#100 = DIRECTION ( 'NONE',  ( 2.441897141834630300E-016, -1.000000000000000000, -4.664802624475447800E-016 ) ) ;
#101 = COORDINATED_UNIVERSAL_TIME_OFFSET ( 2, 0, .AHEAD. ) ;
#102 = EDGE_LOOP ( 'NONE', ( #59, #39, #23, #27 ) ) ;
#103 = DATE_AND_TIME ( #163, #79 ) ;
#104 = APPROVAL_PERSON_ORGANIZATION ( #170, #141, #17 ) ;
#105 = CC_DESIGN_PERSON_AND_ORGANIZATION_ASSIGNMENT ( #42, #146, ( #69 ) ) ;
#106 = CARTESIAN_POINT ( 'NONE',  ( 2.498001805406600200E-016, 1.221245327087670000E-015, 0.1695430455642820400 ) ) ;
#107 = CARTESIAN_POINT ( 'NONE',  ( 2.134834359753105200, -6.426126284397923000, 0.1736354970961606600 ) ) ;
#108 = CARTESIAN_POINT ( 'NONE',  ( 2.138994752495131400, 2.144127790568236800, -0.05793485503962694800 ) ) ;
#109 = CARTESIAN_POINT ( 'NONE',  ( -2.856865137457881000E-015, 6.426126284397930100, 0.1736354970961473400 ) ) ;
#110 = PERSON_AND_ORGANIZATION ( #16, #85 ) ;
#111 = ORIENTED_EDGE ( 'NONE', *, *, #189, .F. ) ;
#112 = CARTESIAN_POINT ( 'NONE',  ( 2.498001805406600200E-016, -6.349999999999998800, 0.1695430455642812600 ) ) ;
#113 = CARTESIAN_POINT ( 'NONE',  ( -4.336808689942017700E-015, -6.426126284397923000, 0.1736354970961699300 ) ) ;
#114 = APPLICATION_CONTEXT ( 'configuration controlled 3d designs of mechanical parts and assemblies' ) ;
#115 = APPLICATION_CONTEXT ( 'configuration controlled 3d designs of mechanical parts and assemblies' ) ;
#116 = APPLICATION_PROTOCOL_DEFINITION ( 'international standard', 'config_control_design', 1994, #115 ) ;
#117 = ORIENTED_EDGE ( 'NONE', *, *, #71, .F. ) ;
#118 = DATE_AND_TIME ( #167, #87 ) ;
#119 = LINE ( 'NONE', #173, #156 ) ;
#120 = EDGE_CURVE ( 'NONE', #191, #134, #119, .T. ) ;
#121 = PERSON_AND_ORGANIZATION ( #16, #85 ) ;
#122 = CYLINDRICAL_SURFACE ( 'NONE', #1, 6.349999999999999600 ) ;
#123 = ORIENTED_EDGE ( 'NONE', *, *, #200, .T. ) ;
#124 = DIRECTION ( 'NONE',  ( -2.263101954399279900E-032, -1.176724863685299900E-016, 1.000000000000000000 ) ) ;
#125 = CC_DESIGN_PERSON_AND_ORGANIZATION_ASSIGNMENT ( #93, #30, ( #150 ) ) ;
#126 = CYLINDRICAL_SURFACE ( 'NONE', #195, 6.349999999999999600 ) ;
#127 = AXIS2_PLACEMENT_3D ( 'NONE', #106, #56, #41 ) ;
#128 = CARTESIAN_POINT ( 'NONE',  ( -2.138994752495141600, -2.144127790568229700, -0.05793485503960446600 ) ) ;
#129 = DIRECTION ( 'NONE',  ( 2.263101954399279900E-032, 1.176724863685299900E-016, -1.000000000000000000 ) ) ;
#130 = APPROVAL_ROLE ( '' ) ;
#131 = CARTESIAN_POINT ( 'NONE',  ( 0.0000000000000000000, 0.0000000000000000000, 0.0000000000000000000 ) ) ;
#132 = AXIS2_PLACEMENT_3D ( 'NONE', #185, #37, #9 ) ;
#133 = DIRECTION ( 'NONE',  ( -2.263101954399279900E-032, -1.176724863685299900E-016, 1.000000000000000000 ) ) ;
#134 = VERTEX_POINT ( 'NONE', #60 ) ;
#135 = PERSON_AND_ORGANIZATION ( #16, #85 ) ;
#136 = APPROVAL_PERSON_ORGANIZATION ( #121, #36, #130 ) ;
#137 = ADVANCED_FACE ( 'NONE', ( #26 ), #122, .T. ) ;
#138 = CARTESIAN_POINT ( 'NONE',  ( 6.413102391574687600, -2.144127790568227000, 0.1149127532723908400 ) ) ;
#139 = CARTESIAN_POINT ( 'NONE',  ( -1.869143173365929500E-015, 2.144127790568236300, -0.05793485503962641400 ) ) ;
#140 = CARTESIAN_POINT ( 'NONE',  ( 4.268893743856375000, 6.426126284397931900, 0.2311532222181799900 ) ) ;
#141 = APPROVAL ( #99, 'UNSPECIFIED' ) ;
#142 = SHAPE_DEFINITION_REPRESENTATION ( #214, #178 ) ;
#143 =( LENGTH_UNIT ( ) NAMED_UNIT ( * ) SI_UNIT ( .MILLI., .METRE. ) );
#144 = SECURITY_CLASSIFICATION_LEVEL ( 'unclassified' ) ;
#145 = PERSON_AND_ORGANIZATION_ROLE ( 'design_supplier' ) ;
#146 = PERSON_AND_ORGANIZATION_ROLE ( 'classification_officer' ) ;
#147 = CIRCLE ( 'NONE', #34, 6.349999999999999600 ) ;
#148 = CARTESIAN_POINT ( 'NONE',  ( -2.138994752495142500, 2.144127790568235400, -0.05793485503961705300 ) ) ;
#149 = UNCERTAINTY_MEASURE_WITH_UNIT (LENGTH_MEASURE( 1.000000000000000100E-005 ), #143, 'distance_accuracy_value', 'NONE');
#150 = PRODUCT_DEFINITION_FORMATION_WITH_SPECIFIED_SOURCE ( 'ANY', '', #97, .NOT_KNOWN. ) ;
#151 = EDGE_LOOP ( 'NONE', ( #25, #123 ) ) ;
#152 = CC_DESIGN_APPROVAL ( #141, ( #86 ) ) ;
#153 = APPROVAL_DATE_TIME ( #118, #141 ) ;
#154 = ORIENTED_EDGE ( 'NONE', *, *, #62, .F. ) ;
#155 = CARTESIAN_POINT ( 'NONE',  ( 4.268893743856377700, -6.426126284397923000, 0.2311532222181938400 ) ) ;
#156 = VECTOR ( 'NONE', #124, 1000.000000000000000 ) ;
#157 = AXIS2_PLACEMENT_3D ( 'NONE', #131, #213, #32 ) ;
#158 = DIRECTION ( 'NONE',  ( 0.0000000000000000000, -1.000000000000000000, -1.365923996832131600E-016 ) ) ;
#159 = DESIGN_CONTEXT ( 'detailed design', #115, 'design' ) ;
#160 = COORDINATED_UNIVERSAL_TIME_OFFSET ( 2, 0, .AHEAD. ) ;
#161 = ORIENTED_EDGE ( 'NONE', *, *, #71, .T. ) ;
#162 = CARTESIAN_POINT ( 'NONE',  ( -5.204170427930420500E-015, -2.144127790568228800, -0.05793485503960508300 ) ) ;
#163 = CALENDAR_DATE ( 2018, 13, 12 ) ;
#164 = APPLICATION_PROTOCOL_DEFINITION ( 'international standard', 'config_control_design', 1994, #114 ) ;
#165 = APPROVAL_STATUS ( 'not_yet_approved' ) ;
#166 = CARTESIAN_POINT ( 'NONE',  ( -7.806255641895631900E-015, 6.426126284397930100, 0.1736354970961561100 ) ) ;
#167 = CALENDAR_DATE ( 2018, 13, 12 ) ;
#168 = CC_DESIGN_PERSON_AND_ORGANIZATION_ASSIGNMENT ( #63, #169, ( #86 ) ) ;
#169 = PERSON_AND_ORGANIZATION_ROLE ( 'creator' ) ;
#170 = PERSON_AND_ORGANIZATION ( #16, #85 ) ;
#171 = CC_DESIGN_DATE_AND_TIME_ASSIGNMENT ( #212, #48, ( #69 ) ) ;
#172 = CALENDAR_DATE ( 2018, 13, 12 ) ;
#173 = CARTESIAN_POINT ( 'NONE',  ( 1.027450897999229200E-015, 6.350000000000000500, 0.1695430455642827900 ) ) ;
#174 = ADVANCED_FACE ( 'NONE', ( #35 ), #84, .T. ) ;
#175 = COORDINATED_UNIVERSAL_TIME_OFFSET ( 2, 0, .AHEAD. ) ;
#176 = CARTESIAN_POINT ( 'NONE',  ( -2.134834359753112300, -6.426126284397923900, 0.1736354970961705400 ) ) ;
#177 = EDGE_LOOP ( 'NONE', ( #201, #154, #197, #161 ) ) ;
#178 = ADVANCED_BREP_SHAPE_REPRESENTATION ( '110-1127E UVFS pl-cx 12.7 F250', ( #94, #157 ), #46 ) ;
#179 = CC_DESIGN_SECURITY_CLASSIFICATION ( #69, ( #150 ) ) ;
#180 =( NAMED_UNIT ( * ) PLANE_ANGLE_UNIT ( ) SI_UNIT ( $, .RADIAN. ) );
#181 = CIRCLE ( 'NONE', #202, 6.349999999999999600 ) ;
#182 = ORIENTED_EDGE ( 'NONE', *, *, #200, .F. ) ;
#183 = EDGE_CURVE ( 'NONE', #191, #96, #147, .T. ) ;
#184 = LINE ( 'NONE', #112, #199 ) ;
#185 = CARTESIAN_POINT ( 'NONE',  ( 0.0000000000000000000, 13.15799999999999900, 3.000000000000000000 ) ) ;
#186 = DIRECTION ( 'NONE',  ( -2.263101954399279900E-032, -1.176724863685299900E-016, 1.000000000000000000 ) ) ;
#187 = CARTESIAN_POINT ( 'NONE',  ( 2.498001805406600200E-016, 1.221245327087670000E-015, 0.1695430455642820400 ) ) ;
#188 = FACE_OUTER_BOUND ( 'NONE', #177, .T. ) ;
#189 = EDGE_CURVE ( 'NONE', #134, #74, #181, .T. ) ;
#190 = EDGE_CURVE ( 'NONE', #96, #74, #184, .T. ) ;
#191 = VERTEX_POINT ( 'NONE', #196 ) ;
#192 = CARTESIAN_POINT ( 'NONE',  ( -6.400628763664832900, 6.426126284397928300, 0.3461469129353855800 ) ) ;
#193 = DIRECTION ( 'NONE',  ( 2.263101954399279900E-032, 1.176724863685299900E-016, -1.000000000000000000 ) ) ;
#194 = MECHANICAL_CONTEXT ( 'NONE', #114, 'mechanical' ) ;
#195 = AXIS2_PLACEMENT_3D ( 'NONE', #215, #51, #53 ) ;
#196 = CARTESIAN_POINT ( 'NONE',  ( 1.027450897999229200E-015, 6.350000000000000500, 0.1695430455642827900 ) ) ;
#197 = ORIENTED_EDGE ( 'NONE', *, *, #190, .T. ) ;
#198 = APPROVAL_DATE_TIME ( #103, #28 ) ;
#199 = VECTOR ( 'NONE', #133, 1000.000000000000000 ) ;
#200 = EDGE_CURVE ( 'NONE', #96, #191, #4, .T. ) ;
#201 = ORIENTED_EDGE ( 'NONE', *, *, #120, .F. ) ;
#202 = AXIS2_PLACEMENT_3D ( 'NONE', #18, #129, #20 ) ;
#203 = CARTESIAN_POINT ( 'NONE',  ( 4.277213019057889200, 2.144127790568237200, -0.0003050386328332382200 ) ) ;
#204 = PLANE ( 'NONE',  #132 ) ;
#205 = ADVANCED_FACE ( 'NONE', ( #188 ), #126, .T. ) ;
#206 = CARTESIAN_POINT ( 'NONE',  ( 4.277213019057889200, -2.144127790568227900, -0.0003050386328206478700 ) ) ;
#207 = COORDINATED_UNIVERSAL_TIME_OFFSET ( 2, 0, .AHEAD. ) ;
#208 = CC_DESIGN_DATE_AND_TIME_ASSIGNMENT ( #14, #31, ( #86 ) ) ;
#209 = CARTESIAN_POINT ( 'NONE',  ( -4.277213019057901600, -2.144127790568230100, -0.0003050386328116217800 ) ) ;
#210 = LOCAL_TIME ( 16, 51, 6.000000000000000000, #160 ) ;
#211 = DIRECTION ( 'NONE',  ( 0.0000000000000000000, -1.000000000000000000, -1.195183497228115300E-016 ) ) ;
#212 = DATE_AND_TIME ( #6, #210 ) ;
#213 = DIRECTION ( 'NONE',  ( 0.0000000000000000000, 0.0000000000000000000, 1.000000000000000000 ) ) ;
#214 = PRODUCT_DEFINITION_SHAPE ( 'NONE', 'NONE',  #86 ) ;
#215 = CARTESIAN_POINT ( 'NONE',  ( 2.498001805406600200E-016, 1.221245327087670000E-015, 0.1695430455642820400 ) ) ;
ENDSEC;
END-ISO-10303-21;
