ISO-10303-21;
HEADER;
FILE_DESCRIPTION (( 'STEP AP203' ),
    '1' );
FILE_NAME ('110-1123E UVFS pl-cx 12.7 F200.STEP',
    '2018-12-13T14:51:25',
    ( '' ),
    ( '' ),
    'SwSTEP 2.0',
    'SolidWorks 2017',
    '' );
FILE_SCHEMA (( 'CONFIG_CONTROL_DESIGN' ));
ENDSEC;

DATA;
#1 = PERSON_AND_ORGANIZATION_ROLE ( 'creator' ) ;
#2 = PERSON_AND_ORGANIZATION ( #159, #44 ) ;
#3 = ORIENTED_EDGE ( 'NONE', *, *, #89, .T. ) ;
#4 = APPROVAL ( #155, 'UNSPECIFIED' ) ;
#5 = COORDINATED_UNIVERSAL_TIME_OFFSET ( 2, 0, .AHEAD. ) ;
#6 = EDGE_LOOP ( 'NONE', ( #68, #87 ) ) ;
#7 = DESIGN_CONTEXT ( 'detailed design', #88, 'design' ) ;
#8 = CARTESIAN_POINT ( 'NONE',  ( -2.140291881030328600, 2.145289535013010300, -0.07247950996609169000 ) ) ;
#9 = DIRECTION ( 'NONE',  ( 0.0000000000000000000, -1.000000000000000000, -1.195183497228115300E-016 ) ) ;
#10 = CC_DESIGN_SECURITY_CLASSIFICATION ( #62, ( #178 ) ) ;
#11 = CARTESIAN_POINT ( 'NONE',  ( 7.105427357601000300E-015, 7.105427357601000300E-015, 95.20999999999999400 ) ) ;
#12 = CARTESIAN_POINT ( 'NONE',  ( 1.027450897999229200E-015, 6.350000000000000500, 0.2119915998235257500 ) ) ;
#13 = AXIS2_PLACEMENT_3D ( 'NONE', #79, #112, #200 ) ;
#14 = ADVANCED_FACE ( 'NONE', ( #174 ), #158, .T. ) ;
#15 = PERSON_AND_ORGANIZATION_ROLE ( 'design_owner' ) ;
#16 = FACE_OUTER_BOUND ( 'NONE', #130, .T. ) ;
#17 = DIRECTION ( 'NONE',  ( -4.370956789862800200E-018, 1.194640975136460100E-016, -1.000000000000000000 ) ) ;
#18 = CARTESIAN_POINT ( 'NONE',  ( 2.770495879171949700E-016, 6.426084769830158200, 0.2171079789074076300 ) ) ;
#19 = DATE_TIME_ROLE ( 'classification_date' ) ;
#20 = CALENDAR_DATE ( 2018, 13, 12 ) ;
#21 = PERSON_AND_ORGANIZATION_ROLE ( 'classification_officer' ) ;
#22 = PERSON_AND_ORGANIZATION_ROLE ( 'creator' ) ;
#23 = PERSON_AND_ORGANIZATION ( #159, #44 ) ;
#24 = FACE_OUTER_BOUND ( 'NONE', #111, .T. ) ;
#25 = PERSON_AND_ORGANIZATION ( #159, #44 ) ;
#26 = EDGE_CURVE ( 'NONE', #83, #138, #169, .T. ) ;
#27 = ORIENTED_EDGE ( 'NONE', *, *, #119, .T. ) ;
#28 = PERSON_AND_ORGANIZATION ( #159, #44 ) ;
#29 = CARTESIAN_POINT ( 'NONE',  ( -6.395309113117348500, 6.426084769830158200, 0.4326316261174384400 ) ) ;
#30 = CARTESIAN_POINT ( 'NONE',  ( -2.133786994145860900, -6.426084769830149300, 0.2171079789074107400 ) ) ;
#31 = AXIS2_PLACEMENT_3D ( 'NONE', #193, #147, #46 ) ;
#32 = CARTESIAN_POINT ( 'NONE',  ( 4.279369422758470900, 2.145289535013010300, -0.0003920181335695893100 ) ) ;
#33 = DATE_AND_TIME ( #115, #42 ) ;
#34 = CYLINDRICAL_SURFACE ( 'NONE', #141, 6.349999999999999600 ) ;
#35 = DIRECTION ( 'NONE',  ( 0.0000000000000000000, -1.000000000000000000, -1.365923996832131600E-016 ) ) ;
#36 = CARTESIAN_POINT ( 'NONE',  ( 2.140291881030337500, 2.145289535013010300, -0.07247950996609485400 ) ) ;
#37 = DIRECTION ( 'NONE',  ( 4.370956789862800200E-018, -1.194640975136460100E-016, 1.000000000000000000 ) ) ;
#38 = CARTESIAN_POINT ( 'NONE',  ( 2.770495879171949700E-016, -6.426084769830148400, 0.2171079789074076300 ) ) ;
#39 = APPROVAL_STATUS ( 'not_yet_approved' ) ;
#40 = ORIENTED_EDGE ( 'NONE', *, *, #80, .F. ) ;
#41 = UNCERTAINTY_MEASURE_WITH_UNIT (LENGTH_MEASURE( 1.000000000000000100E-005 ), #78, 'distance_accuracy_value', 'NONE');
#42 = LOCAL_TIME ( 16, 51, 25.00000000000000000, #203 ) ;
#43 = CARTESIAN_POINT ( 'NONE',  ( -2.140291881030328600, -2.145289535013000600, -0.07247950996609178700 ) ) ;
#44 = ORGANIZATION ( 'UNSPECIFIED', 'UNSPECIFIED', '' ) ;
#45 = CARTESIAN_POINT ( 'NONE',  ( -6.414805324541527300, 2.145289535013010800, 0.1437011648431647500 ) ) ;
#46 = DIRECTION ( 'NONE',  ( 1.000000000000000000, 0.0000000000000000000, -0.0000000000000000000 ) ) ;
#47 = VECTOR ( 'NONE', #86, 1000.000000000000000 ) ;
#48 = APPROVAL ( #135, 'UNSPECIFIED' ) ;
#49 = DIRECTION ( 'NONE',  ( 1.000000000000000000, 9.414397848674539600E-032, 3.084613711104210100E-016 ) ) ;
#50 = DIRECTION ( 'NONE',  ( 1.000000000000000000, 0.0000000000000000000, 0.0000000000000000000 ) ) ;
#51 = AXIS2_PLACEMENT_3D ( 'NONE', #128, #60, #50 ) ;
#52 = CIRCLE ( 'NONE', #69, 6.349999999999999600 ) ;
#53 = DATE_AND_TIME ( #20, #139 ) ;
#54 = VERTEX_POINT ( 'NONE', #209 ) ;
#55 = AXIS2_PLACEMENT_3D ( 'NONE', #11, #49, #211 ) ;
#56 = CC_DESIGN_DATE_AND_TIME_ASSIGNMENT ( #53, #19, ( #62 ) ) ;
#57 = ORIENTED_EDGE ( 'NONE', *, *, #26, .T. ) ;
#58 = CARTESIAN_POINT ( 'NONE',  ( -4.279369422758465500, -2.145289535013000600, -0.0003920181335694537300 ) ) ;
#59 =( NAMED_UNIT ( * ) SI_UNIT ( $, .STERADIAN. ) SOLID_ANGLE_UNIT ( ) );
#60 = DIRECTION ( 'NONE',  ( 0.0000000000000000000, 0.0000000000000000000, 1.000000000000000000 ) ) ;
#61 = CIRCLE ( 'NONE', #55, 95.20999999999999400 ) ;
#62 = SECURITY_CLASSIFICATION ( '', '', #66 ) ;
#63 = CARTESIAN_POINT ( 'NONE',  ( 2.619864447876059000E-016, 8.881784197001233600E-016, 3.000000000000000000 ) ) ;
#64 = CARTESIAN_POINT ( 'NONE',  ( 2.133786994145870300, 6.426084769830159100, 0.2171079789074074900 ) ) ;
#65 = ADVANCED_FACE ( 'NONE', ( #197 ), #34, .T. ) ;
#66 = SECURITY_CLASSIFICATION_LEVEL ( 'unclassified' ) ;
#67 = LOCAL_TIME ( 16, 51, 25.00000000000000000, #188 ) ;
#68 = ORIENTED_EDGE ( 'NONE', *, *, #105, .F. ) ;
#69 = AXIS2_PLACEMENT_3D ( 'NONE', #168, #127, #35 ) ;
#70 = LOCAL_TIME ( 16, 51, 25.00000000000000000, #94 ) ;
#71 = CALENDAR_DATE ( 2018, 13, 12 ) ;
#72 = FACE_OUTER_BOUND ( 'NONE', #125, .T. ) ;
#73 = CC_DESIGN_PERSON_AND_ORGANIZATION_ASSIGNMENT ( #23, #21, ( #62 ) ) ;
#74 = DATE_AND_TIME ( #71, #70 ) ;
#75 = PLANE ( 'NONE',  #31 ) ;
#76 = APPROVAL_PERSON_ORGANIZATION ( #25, #4, #132 ) ;
#77 = CLOSED_SHELL ( 'NONE', ( #129, #65, #14, #214, #81 ) ) ;
#78 =( LENGTH_UNIT ( ) NAMED_UNIT ( * ) SI_UNIT ( .MILLI., .METRE. ) );
#79 = CARTESIAN_POINT ( 'NONE',  ( 2.498001805406600200E-016, 1.221245327087670000E-015, 0.2119915998235250000 ) ) ;
#80 = EDGE_CURVE ( 'NONE', #83, #82, #121, .T. ) ;
#81 = ADVANCED_FACE ( 'NONE', ( #16 ), #75, .T. ) ;
#82 = VERTEX_POINT ( 'NONE', #166 ) ;
#83 = VERTEX_POINT ( 'NONE', #124 ) ;
#84 = CARTESIAN_POINT ( 'NONE',  ( 2.498001805406600200E-016, -6.349999999999998800, 0.2119915998235242200 ) ) ;
#85 = CARTESIAN_POINT ( 'NONE',  ( 1.387778780781445700E-014, 2.145289535013010800, -0.07247950996609153800 ) ) ;
#86 = DIRECTION ( 'NONE',  ( 4.370956789862800200E-018, -1.194640975136460100E-016, 1.000000000000000000 ) ) ;
#87 = ORIENTED_EDGE ( 'NONE', *, *, #80, .T. ) ;
#88 = APPLICATION_CONTEXT ( 'configuration controlled 3d designs of mechanical parts and assemblies' ) ;
#89 = EDGE_CURVE ( 'NONE', #138, #54, #52, .T. ) ;
#90 = ORIENTED_EDGE ( 'NONE', *, *, #105, .T. ) ;
#91 = APPROVAL ( #39, 'UNSPECIFIED' ) ;
#92 = CARTESIAN_POINT ( 'NONE',  ( 2.133786994145870300, -6.426084769830149300, 0.2171079789074074900 ) ) ;
#93 = CARTESIAN_POINT ( 'NONE',  ( 2.498001805406600200E-016, 1.221245327087670000E-015, 0.2119915998235250300 ) ) ;
#94 = COORDINATED_UNIVERSAL_TIME_OFFSET ( 2, 0, .AHEAD. ) ;
#95 = CC_DESIGN_PERSON_AND_ORGANIZATION_ASSIGNMENT ( #206, #15, ( #97 ) ) ;
#96 = COORDINATED_UNIVERSAL_TIME_OFFSET ( 2, 0, .AHEAD. ) ;
#97 = PRODUCT ( '110-1123E UVFS pl-cx 12.7 F200', '110-1123E UVFS pl-cx 12.7 F200', '', ( #194 ) ) ;
#98 = APPROVAL_DATE_TIME ( #133, #4 ) ;
#99 = PRODUCT_DEFINITION ( 'UNKNOWN', '', #178, #7 ) ;
#100 = AXIS2_PLACEMENT_3D ( 'NONE', #63, #17, #171 ) ;
#101 = CC_DESIGN_PERSON_AND_ORGANIZATION_ASSIGNMENT ( #162, #131, ( #178 ) ) ;
#102 = CARTESIAN_POINT ( 'NONE',  ( -4.279369422758465500, 2.145289535013010300, -0.0003920181335692910400 ) ) ;
#103 = CARTESIAN_POINT ( 'NONE',  ( -4.266363339672972500, -6.426084769830149300, 0.2889763786692152700 ) ) ;
#104 = PRODUCT_RELATED_PRODUCT_CATEGORY ( 'detail', '', ( #97 ) ) ;
#105 = EDGE_CURVE ( 'NONE', #83, #82, #61, .T. ) ;
#106 = DIRECTION ( 'NONE',  ( -4.370956789862800200E-018, 1.194640975136460100E-016, -1.000000000000000000 ) ) ;
#107 = CARTESIAN_POINT ( 'NONE',  ( 2.562331591367837300E-016, -2.145289535013001500, -0.07247950996609492400 ) ) ;
#108 =( BOUNDED_SURFACE ( )  B_SPLINE_SURFACE ( 3, 3, ( 
 ( #38, #92, #213, #153 ),
 ( #107, #170, #148, #126 ),
 ( #215, #36, #32, #150 ),
 ( #18, #64, #152, #113 ) ),
 .UNSPECIFIED., .F., .F., .T. ) 
 B_SPLINE_SURFACE_WITH_KNOTS ( ( 4, 4 ),
 ( 4, 4 ),
 ( 0.0000000000000000000, 1.000000000000000000 ),
 ( 0.0000000000000000000, 1.000000000000000000 ),
 .UNSPECIFIED. ) 
 GEOMETRIC_REPRESENTATION_ITEM ( )  RATIONAL_B_SPLINE_SURFACE ( (
 ( 1.000000000000000000, 0.9996217527422416300, 0.9996217527422416300, 1.000000000000000000),
 ( 0.9984797956873758800, 0.9981021234427299700, 0.9981021234427299700, 0.9984797956873758800),
 ( 0.9984797956873758800, 0.9981021234427299700, 0.9981021234427299700, 0.9984797956873758800),
 ( 1.000000000000000000, 0.9996217527422416300, 0.9996217527422416300, 1.000000000000000000) ) ) 
 REPRESENTATION_ITEM ( '' )  SURFACE ( )  );
#109 = CC_DESIGN_APPROVAL ( #4, ( #62 ) ) ;
#110 = DIRECTION ( 'NONE',  ( -4.370956789862800200E-018, 1.194640975136460100E-016, -1.000000000000000000 ) ) ;
#111 = EDGE_LOOP ( 'NONE', ( #140, #90 ) ) ;
#112 = DIRECTION ( 'NONE',  ( 4.370956789862800200E-018, -1.194640975136460100E-016, 1.000000000000000000 ) ) ;
#113 = CARTESIAN_POINT ( 'NONE',  ( 6.395309113117346700, 6.426084769830158200, 0.4326316261174374400 ) ) ;
#114 = CARTESIAN_POINT ( 'NONE',  ( 2.619864447876059000E-016, -6.349999999999998800, 2.999999999999999100 ) ) ;
#115 = CALENDAR_DATE ( 2018, 13, 12 ) ;
#116 = APPROVAL_ROLE ( '' ) ;
#117 = CC_DESIGN_APPROVAL ( #48, ( #99 ) ) ;
#118 = CALENDAR_DATE ( 2018, 13, 12 ) ;
#119 = EDGE_CURVE ( 'NONE', #82, #54, #204, .T. ) ;
#120 = DATE_AND_TIME ( #118, #67 ) ;
#121 = CIRCLE ( 'NONE', #187, 6.349999999999999600 ) ;
#122 = CARTESIAN_POINT ( 'NONE',  ( -2.133786994145860900, 6.426084769830159100, 0.2171079789074107400 ) ) ;
#123 = CARTESIAN_POINT ( 'NONE',  ( 2.498001805406600200E-016, 1.221245327087670000E-015, 0.2119915998235250000 ) ) ;
#124 = CARTESIAN_POINT ( 'NONE',  ( 2.498001805406600200E-016, -6.349999999999998800, 0.2119915998235242500 ) ) ;
#125 = EDGE_LOOP ( 'NONE', ( #175, #40, #57, #3 ) ) ;
#126 = CARTESIAN_POINT ( 'NONE',  ( 6.414805324541526400, -2.145289535013001500, 0.1437011648431635600 ) ) ;
#127 = DIRECTION ( 'NONE',  ( -4.370956789862800200E-018, 1.194640975136460100E-016, -1.000000000000000000 ) ) ;
#128 = CARTESIAN_POINT ( 'NONE',  ( 0.0000000000000000000, 0.0000000000000000000, 0.0000000000000000000 ) ) ;
#129 = ADVANCED_FACE ( 'NONE', ( #24 ), #108, .T. ) ;
#130 = EDGE_LOOP ( 'NONE', ( #212, #134 ) ) ;
#131 = PERSON_AND_ORGANIZATION_ROLE ( 'design_supplier' ) ;
#132 = APPROVAL_ROLE ( '' ) ;
#133 = DATE_AND_TIME ( #201, #142 ) ;
#134 = ORIENTED_EDGE ( 'NONE', *, *, #137, .F. ) ;
#135 = APPROVAL_STATUS ( 'not_yet_approved' ) ;
#136 = CC_DESIGN_PERSON_AND_ORGANIZATION_ASSIGNMENT ( #28, #1, ( #99 ) ) ;
#137 = EDGE_CURVE ( 'NONE', #54, #138, #176, .T. ) ;
#138 = VERTEX_POINT ( 'NONE', #114 ) ;
#139 = LOCAL_TIME ( 16, 51, 25.00000000000000000, #96 ) ;
#140 = ORIENTED_EDGE ( 'NONE', *, *, #185, .T. ) ;
#141 = AXIS2_PLACEMENT_3D ( 'NONE', #123, #145, #180 ) ;
#142 = LOCAL_TIME ( 16, 51, 25.00000000000000000, #5 ) ;
#143 = CYLINDRICAL_SURFACE ( 'NONE', #13, 6.349999999999999600 ) ;
#144 = CARTESIAN_POINT ( 'NONE',  ( -6.395309113117348500, -6.426084769830148400, 0.4326316261174384400 ) ) ;
#145 = DIRECTION ( 'NONE',  ( 4.370956789862800200E-018, -1.194640975136460100E-016, 1.000000000000000000 ) ) ;
#146 = APPROVAL_DATE_TIME ( #120, #48 ) ;
#147 = DIRECTION ( 'NONE',  ( 0.0000000000000000000, 0.0000000000000000000, 1.000000000000000000 ) ) ;
#148 = CARTESIAN_POINT ( 'NONE',  ( 4.279369422758470900, -2.145289535013000600, -0.0003920181335698060900 ) ) ;
#149 = CC_DESIGN_DATE_AND_TIME_ASSIGNMENT ( #74, #202, ( #99 ) ) ;
#150 = CARTESIAN_POINT ( 'NONE',  ( 6.414805324541526400, 2.145289535013010800, 0.1437011648431637800 ) ) ;
#151 = SHAPE_DEFINITION_REPRESENTATION ( #195, #198 ) ;
#152 = CARTESIAN_POINT ( 'NONE',  ( 4.266363339672977000, 6.426084769830159100, 0.2889763786692149400 ) ) ;
#153 = CARTESIAN_POINT ( 'NONE',  ( 6.395309113117346700, -6.426084769830148400, 0.4326316261174374400 ) ) ;
#154 =( NAMED_UNIT ( * ) PLANE_ANGLE_UNIT ( ) SI_UNIT ( $, .RADIAN. ) );
#155 = APPROVAL_STATUS ( 'not_yet_approved' ) ;
#156 = PERSON_AND_ORGANIZATION ( #159, #44 ) ;
#157 = APPROVAL_ROLE ( '' ) ;
#158 =( BOUNDED_SURFACE ( )  B_SPLINE_SURFACE ( 3, 3, ( 
 ( #144, #103, #30, #208 ),
 ( #167, #58, #43, #177 ),
 ( #45, #102, #8, #85 ),
 ( #29, #210, #122, #164 ) ),
 .UNSPECIFIED., .F., .F., .F. ) 
 B_SPLINE_SURFACE_WITH_KNOTS ( ( 4, 4 ),
 ( 4, 4 ),
 ( 0.0000000000000000000, 1.000000000000000000 ),
 ( 0.0000000000000000000, 1.000000000000000000 ),
 .UNSPECIFIED. ) 
 GEOMETRIC_REPRESENTATION_ITEM ( )  RATIONAL_B_SPLINE_SURFACE ( (
 ( 1.000000000000000000, 0.9996217527422416300, 0.9996217527422416300, 1.000000000000000000),
 ( 0.9984797956873758800, 0.9981021234427299700, 0.9981021234427299700, 0.9984797956873758800),
 ( 0.9984797956873758800, 0.9981021234427299700, 0.9981021234427299700, 0.9984797956873758800),
 ( 1.000000000000000000, 0.9996217527422416300, 0.9996217527422416300, 1.000000000000000000) ) ) 
 REPRESENTATION_ITEM ( '' )  SURFACE ( )  );
#159 = PERSON ( 'UNSPECIFIED', 'UNSPECIFIED', 'UNSPECIFIED', ('UNSPECIFIED'), ('UNSPECIFIED'), ('UNSPECIFIED') ) ;
#160 = AXIS2_PLACEMENT_3D ( 'NONE', #93, #110, #184 ) ;
#161 = APPROVAL_PERSON_ORGANIZATION ( #156, #91, #157 ) ;
#162 = PERSON_AND_ORGANIZATION ( #159, #44 ) ;
#163 = ORIENTED_EDGE ( 'NONE', *, *, #26, .F. ) ;
#164 = CARTESIAN_POINT ( 'NONE',  ( 1.387778780781445700E-014, 6.426084769830158200, 0.2171079789074108500 ) ) ;
#165 = APPROVAL_DATE_TIME ( #33, #91 ) ;
#166 = CARTESIAN_POINT ( 'NONE',  ( 1.033544030122702300E-015, 6.350000000000000500, 0.2119915998235257800 ) ) ;
#167 = CARTESIAN_POINT ( 'NONE',  ( -6.414805324541527300, -2.145289535013001500, 0.1437011648431645900 ) ) ;
#168 = CARTESIAN_POINT ( 'NONE',  ( 2.619864447876059000E-016, 8.881784197001233600E-016, 3.000000000000000000 ) ) ;
#169 = LINE ( 'NONE', #84, #47 ) ;
#170 = CARTESIAN_POINT ( 'NONE',  ( 2.140291881030337500, -2.145289535013000600, -0.07247950996609507600 ) ) ;
#171 = DIRECTION ( 'NONE',  ( 0.0000000000000000000, -1.000000000000000000, -1.365923996832131600E-016 ) ) ;
#172 = VECTOR ( 'NONE', #37, 1000.000000000000000 ) ;
#173 = APPLICATION_PROTOCOL_DEFINITION ( 'international standard', 'config_control_design', 1994, #88 ) ;
#174 = FACE_OUTER_BOUND ( 'NONE', #6, .T. ) ;
#175 = ORIENTED_EDGE ( 'NONE', *, *, #119, .F. ) ;
#176 = CIRCLE ( 'NONE', #100, 6.349999999999999600 ) ;
#177 = CARTESIAN_POINT ( 'NONE',  ( 1.387778780781445700E-014, -2.145289535013001500, -0.07247950996609163500 ) ) ;
#178 = PRODUCT_DEFINITION_FORMATION_WITH_SPECIFIED_SOURCE ( 'ANY', '', #97, .NOT_KNOWN. ) ;
#179 = CARTESIAN_POINT ( 'NONE',  ( 2.498001805406600200E-016, 1.221245327087670000E-015, 0.2119915998235250300 ) ) ;
#180 = DIRECTION ( 'NONE',  ( 0.0000000000000000000, -1.000000000000000000, -1.195183497228115300E-016 ) ) ;
#181 = PERSON_AND_ORGANIZATION ( #159, #44 ) ;
#182 = EDGE_LOOP ( 'NONE', ( #186, #27, #207, #163 ) ) ;
#183 = APPLICATION_PROTOCOL_DEFINITION ( 'international standard', 'config_control_design', 1994, #199 ) ;
#184 = DIRECTION ( 'NONE',  ( 0.0000000000000000000, -1.000000000000000000, -1.195183497228115300E-016 ) ) ;
#185 = EDGE_CURVE ( 'NONE', #82, #83, #191, .T. ) ;
#186 = ORIENTED_EDGE ( 'NONE', *, *, #185, .F. ) ;
#187 = AXIS2_PLACEMENT_3D ( 'NONE', #179, #106, #9 ) ;
#188 = COORDINATED_UNIVERSAL_TIME_OFFSET ( 2, 0, .AHEAD. ) ;
#189 = MANIFOLD_SOLID_BREP ( 'Imported1', #77 ) ;
#190 = CC_DESIGN_APPROVAL ( #91, ( #178 ) ) ;
#191 = CIRCLE ( 'NONE', #160, 6.349999999999999600 ) ;
#192 = APPROVAL_PERSON_ORGANIZATION ( #181, #48, #116 ) ;
#193 = CARTESIAN_POINT ( 'NONE',  ( 0.0000000000000000000, 13.15799999999999900, 3.000000000000000000 ) ) ;
#194 = MECHANICAL_CONTEXT ( 'NONE', #199, 'mechanical' ) ;
#195 = PRODUCT_DEFINITION_SHAPE ( 'NONE', 'NONE',  #99 ) ;
#196 =( GEOMETRIC_REPRESENTATION_CONTEXT ( 3 ) GLOBAL_UNCERTAINTY_ASSIGNED_CONTEXT ( ( #41 ) ) GLOBAL_UNIT_ASSIGNED_CONTEXT ( ( #78, #154, #59 ) ) REPRESENTATION_CONTEXT ( 'NONE', 'WORKASPACE' ) );
#197 = FACE_OUTER_BOUND ( 'NONE', #182, .T. ) ;
#198 = ADVANCED_BREP_SHAPE_REPRESENTATION ( '110-1123E UVFS pl-cx 12.7 F200', ( #189, #51 ), #196 ) ;
#199 = APPLICATION_CONTEXT ( 'configuration controlled 3d designs of mechanical parts and assemblies' ) ;
#200 = DIRECTION ( 'NONE',  ( 0.0000000000000000000, -1.000000000000000000, -1.195183497228115300E-016 ) ) ;
#201 = CALENDAR_DATE ( 2018, 13, 12 ) ;
#202 = DATE_TIME_ROLE ( 'creation_date' ) ;
#203 = COORDINATED_UNIVERSAL_TIME_OFFSET ( 2, 0, .AHEAD. ) ;
#204 = LINE ( 'NONE', #12, #172 ) ;
#205 = CC_DESIGN_PERSON_AND_ORGANIZATION_ASSIGNMENT ( #2, #22, ( #178 ) ) ;
#206 = PERSON_AND_ORGANIZATION ( #159, #44 ) ;
#207 = ORIENTED_EDGE ( 'NONE', *, *, #137, .T. ) ;
#208 = CARTESIAN_POINT ( 'NONE',  ( 1.387778780781445700E-014, -6.426084769830148400, 0.2171079789074108500 ) ) ;
#209 = CARTESIAN_POINT ( 'NONE',  ( 1.033544030122702300E-015, 6.350000000000000500, 3.000000000000000900 ) ) ;
#210 = CARTESIAN_POINT ( 'NONE',  ( -4.266363339672972500, 6.426084769830159100, 0.2889763786692152700 ) ) ;
#211 = DIRECTION ( 'NONE',  ( 0.0000000000000000000, -1.000000000000000000, 2.915195422290611700E-016 ) ) ;
#212 = ORIENTED_EDGE ( 'NONE', *, *, #89, .F. ) ;
#213 = CARTESIAN_POINT ( 'NONE',  ( 4.266363339672977000, -6.426084769830149300, 0.2889763786692149400 ) ) ;
#214 = ADVANCED_FACE ( 'NONE', ( #72 ), #143, .T. ) ;
#215 = CARTESIAN_POINT ( 'NONE',  ( 2.562331591367835300E-016, 2.145289535013010800, -0.07247950996609470200 ) ) ;
ENDSEC;
END-ISO-10303-21;
