ISO-10303-21;
HEADER;
FILE_DESCRIPTION (( 'STEP AP203' ),
    '1' );
FILE_NAME ('110-1121E UVFS pl-cx 12.7 F175.STEP',
    '2018-12-13T14:51:39',
    ( '' ),
    ( '' ),
    'SwSTEP 2.0',
    'SolidWorks 2017',
    '' );
FILE_SCHEMA (( 'CONFIG_CONTROL_DESIGN' ));
ENDSEC;

DATA;
#1 = APPROVAL_DATE_TIME ( #190, #150 ) ;
#2 = COORDINATED_UNIVERSAL_TIME_OFFSET ( 2, 0, .AHEAD. ) ;
#3 = VERTEX_POINT ( 'NONE', #57 ) ;
#4 = DIRECTION ( 'NONE',  ( 0.0000000000000000000, -1.000000000000000000, -1.365923996832131600E-016 ) ) ;
#5 = CARTESIAN_POINT ( 'NONE',  ( 1.924412900358324500E-016, 6.426049417753819900, 0.2482037945206322400 ) ) ;
#6 = UNCERTAINTY_MEASURE_WITH_UNIT (LENGTH_MEASURE( 1.000000000000000100E-005 ), #12, 'distance_accuracy_value', 'NONE');
#7 = ORIENTED_EDGE ( 'NONE', *, *, #25, .T. ) ;
#8 = ADVANCED_FACE ( 'NONE', ( #134 ), #186, .T. ) ;
#9 = CYLINDRICAL_SURFACE ( 'NONE', #15, 6.349999999999999600 ) ;
#10 = ORIENTED_EDGE ( 'NONE', *, *, #36, .F. ) ;
#11 = EDGE_CURVE ( 'NONE', #54, #3, #198, .T. ) ;
#12 =( LENGTH_UNIT ( ) NAMED_UNIT ( * ) SI_UNIT ( .MILLI., .METRE. ) );
#13 = DIRECTION ( 'NONE',  ( 0.0000000000000000000, -1.000000000000000000, -1.195183497228115300E-016 ) ) ;
#14 = MECHANICAL_CONTEXT ( 'NONE', #143, 'mechanical' ) ;
#15 = AXIS2_PLACEMENT_3D ( 'NONE', #192, #137, #159 ) ;
#16 =( GEOMETRIC_REPRESENTATION_CONTEXT ( 3 ) GLOBAL_UNCERTAINTY_ASSIGNED_CONTEXT ( ( #6 ) ) GLOBAL_UNIT_ASSIGNED_CONTEXT ( ( #12, #128, #62 ) ) REPRESENTATION_CONTEXT ( 'NONE', 'WORKASPACE' ) );
#17 = CALENDAR_DATE ( 2018, 13, 12 ) ;
#18 = ORIENTED_EDGE ( 'NONE', *, *, #25, .F. ) ;
#19 = MANIFOLD_SOLID_BREP ( 'Imported1', #93 ) ;
#20 = DIRECTION ( 'NONE',  ( 0.0000000000000000000, -1.000000000000000000, -1.195183497228115300E-016 ) ) ;
#21 = CARTESIAN_POINT ( 'NONE',  ( 0.0000000000000000000, 7.105427357601000300E-015, 83.31000000000000200 ) ) ;
#22 = CARTESIAN_POINT ( 'NONE',  ( 1.027450897999229200E-015, 6.350000000000000500, 3.000000000000000900 ) ) ;
#23 = APPROVAL_DATE_TIME ( #106, #185 ) ;
#24 = ORIENTED_EDGE ( 'NONE', *, *, #50, .F. ) ;
#25 = EDGE_CURVE ( 'NONE', #161, #3, #127, .T. ) ;
#26 = CARTESIAN_POINT ( 'NONE',  ( -6.390781237367110500, 6.426049417753819900, 0.4944223345830639500 ) ) ;
#27 = PERSON_AND_ORGANIZATION_ROLE ( 'design_owner' ) ;
#28 = COORDINATED_UNIVERSAL_TIME_OFFSET ( 2, 0, .AHEAD. ) ;
#29 = DIRECTION ( 'NONE',  ( 1.000000000000000000, 0.0000000000000000000, 0.0000000000000000000 ) ) ;
#30 = EDGE_LOOP ( 'NONE', ( #95, #191 ) ) ;
#31 = CC_DESIGN_PERSON_AND_ORGANIZATION_ASSIGNMENT ( #49, #77, ( #181 ) ) ;
#32 = APPROVAL_STATUS ( 'not_yet_approved' ) ;
#33 = PERSON_AND_ORGANIZATION_ROLE ( 'creator' ) ;
#34 = PRODUCT ( '110-1121E UVFS pl-cx 12.7 F175', '110-1121E UVFS pl-cx 12.7 F175', '', ( #14 ) ) ;
#35 = COORDINATED_UNIVERSAL_TIME_OFFSET ( 2, 0, .AHEAD. ) ;
#36 = EDGE_CURVE ( 'NONE', #54, #88, #119, .T. ) ;
#37 = LINE ( 'NONE', #100, #108 ) ;
#38 = CARTESIAN_POINT ( 'NONE',  ( 1.924412900358323500E-016, -6.426049417753816300, 0.2482037945206461100 ) ) ;
#39 = CC_DESIGN_PERSON_AND_ORGANIZATION_ASSIGNMENT ( #92, #177, ( #181 ) ) ;
#40 = COORDINATED_UNIVERSAL_TIME_OFFSET ( 2, 0, .AHEAD. ) ;
#41 = CARTESIAN_POINT ( 'NONE',  ( -4.281206852588781900, -2.146279383696795500, -0.0004584992876069198000 ) ) ;
#42 = CARTESIAN_POINT ( 'NONE',  ( 6.416256332189364600, 2.146279383696798600, 0.1643007711265563900 ) ) ;
#43 = ORIENTED_EDGE ( 'NONE', *, *, #44, .T. ) ;
#44 = EDGE_CURVE ( 'NONE', #54, #88, #112, .T. ) ;
#45 = DIRECTION ( 'NONE',  ( 0.0000000000000000000, -1.000000000000000000, -1.365923996832131600E-016 ) ) ;
#46 = APPLICATION_PROTOCOL_DEFINITION ( 'international standard', 'config_control_design', 1994, #47 ) ;
#47 = APPLICATION_CONTEXT ( 'configuration controlled 3d designs of mechanical parts and assemblies' ) ;
#48 = PERSON_AND_ORGANIZATION_ROLE ( 'classification_officer' ) ;
#49 = PERSON_AND_ORGANIZATION ( #78, #213 ) ;
#50 = EDGE_CURVE ( 'NONE', #88, #161, #37, .T. ) ;
#51 = DATE_AND_TIME ( #179, #149 ) ;
#52 = ORIENTED_EDGE ( 'NONE', *, *, #50, .T. ) ;
#53 = SECURITY_CLASSIFICATION ( '', '', #63 ) ;
#54 = VERTEX_POINT ( 'NONE', #200 ) ;
#55 = CARTESIAN_POINT ( 'NONE',  ( 2.498001805406599800E-016, 8.881784197001225700E-016, 3.000000000000000000 ) ) ;
#56 = ORIENTED_EDGE ( 'NONE', *, *, #163, .F. ) ;
#57 = CARTESIAN_POINT ( 'NONE',  ( 2.498001805406599800E-016, -6.349999999999998800, 2.999999999999999100 ) ) ;
#58 = CARTESIAN_POINT ( 'NONE',  ( 2.498001805406600200E-016, -6.349999999999998800, 0.2423552759559692600 ) ) ;
#59 = CARTESIAN_POINT ( 'NONE',  ( -2.141397183506703600, -2.146279383696795500, -0.08289925154686737800 ) ) ;
#60 = CARTESIAN_POINT ( 'NONE',  ( 6.390781237367087400, 6.426049417753819900, 0.4944223345830726100 ) ) ;
#61 = PERSON_AND_ORGANIZATION ( #78, #213 ) ;
#62 =( NAMED_UNIT ( * ) SI_UNIT ( $, .STERADIAN. ) SOLID_ANGLE_UNIT ( ) );
#63 = SECURITY_CLASSIFICATION_LEVEL ( 'unclassified' ) ;
#64 = CC_DESIGN_PERSON_AND_ORGANIZATION_ASSIGNMENT ( #111, #48, ( #53 ) ) ;
#65 = LOCAL_TIME ( 16, 51, 39.00000000000000000, #28 ) ;
#66 = AXIS2_PLACEMENT_3D ( 'NONE', #132, #99, #169 ) ;
#67 = CARTESIAN_POINT ( 'NONE',  ( 1.932084044040600600E-016, -2.146279383696795900, -0.08289925154685690000 ) ) ;
#68 = PERSON_AND_ORGANIZATION ( #78, #213 ) ;
#69 = EDGE_LOOP ( 'NONE', ( #173, #52, #7, #203 ) ) ;
#70 = CARTESIAN_POINT ( 'NONE',  ( 2.141397183506661400, -2.146279383696795500, -0.08289925154685690000 ) ) ;
#71 = AXIS2_PLACEMENT_3D ( 'NONE', #117, #87, #20 ) ;
#72 = CARTESIAN_POINT ( 'NONE',  ( -2.132894983239499900, -6.426049417753815400, 0.2482037945206357100 ) ) ;
#73 = CARTESIAN_POINT ( 'NONE',  ( -4.264208755119338600, 6.426049417753819000, 0.3303172241368498900 ) ) ;
#74 = CALENDAR_DATE ( 2018, 13, 12 ) ;
#75 = ADVANCED_FACE ( 'NONE', ( #84 ), #164, .T. ) ;
#76 = CARTESIAN_POINT ( 'NONE',  ( 0.0000000000000000000, 13.15799999999999900, 3.000000000000000000 ) ) ;
#77 = PERSON_AND_ORGANIZATION_ROLE ( 'creator' ) ;
#78 = PERSON ( 'UNSPECIFIED', 'UNSPECIFIED', 'UNSPECIFIED', ('UNSPECIFIED'), ('UNSPECIFIED'), ('UNSPECIFIED') ) ;
#79 = ADVANCED_FACE ( 'NONE', ( #171 ), #91, .T. ) ;
#80 = APPROVAL_STATUS ( 'not_yet_approved' ) ;
#81 = APPROVAL_ROLE ( '' ) ;
#82 = SHAPE_DEFINITION_REPRESENTATION ( #215, #140 ) ;
#83 = AXIS2_PLACEMENT_3D ( 'NONE', #126, #176, #13 ) ;
#84 = FACE_OUTER_BOUND ( 'NONE', #148, .T. ) ;
#85 = CC_DESIGN_DATE_AND_TIME_ASSIGNMENT ( #113, #110, ( #53 ) ) ;
#86 = APPROVAL_PERSON_ORGANIZATION ( #118, #185, #174 ) ;
#87 = DIRECTION ( 'NONE',  ( 2.322856388850849900E-032, 1.207794842038649900E-016, -1.000000000000000000 ) ) ;
#88 = VERTEX_POINT ( 'NONE', #107 ) ;
#89 = CARTESIAN_POINT ( 'NONE',  ( -4.281206852588781000, 2.146279383696798200, -0.0004584992876202555400 ) ) ;
#90 = CARTESIAN_POINT ( 'NONE',  ( -6.416256332189386800, 2.146279383696798600, 0.1643007711265478100 ) ) ;
#91 = PLANE ( 'NONE',  #201 ) ;
#92 = PERSON_AND_ORGANIZATION ( #78, #213 ) ;
#93 = CLOSED_SHELL ( 'NONE', ( #75, #8, #122, #210, #79 ) ) ;
#94 = DIRECTION ( 'NONE',  ( 2.322856388850849900E-032, 1.207794842038649900E-016, -1.000000000000000000 ) ) ;
#95 = ORIENTED_EDGE ( 'NONE', *, *, #44, .F. ) ;
#96 = DESIGN_CONTEXT ( 'detailed design', #47, 'design' ) ;
#97 = DIRECTION ( 'NONE',  ( 1.970575965456774000E-046, -1.000000000000000000, -3.331601922413745500E-016 ) ) ;
#98 = ORIENTED_EDGE ( 'NONE', *, *, #208, .T. ) ;
#99 = DIRECTION ( 'NONE',  ( -2.322856388850849900E-032, -1.207794842038649900E-016, 1.000000000000000000 ) ) ;
#100 = CARTESIAN_POINT ( 'NONE',  ( 1.027450897999229200E-015, 6.350000000000000500, 0.2423552759559707800 ) ) ;
#101 = CARTESIAN_POINT ( 'NONE',  ( 2.132894983239457700, -6.426049417753815400, 0.2482037945206461400 ) ) ;
#102 = DIRECTION ( 'NONE',  ( -2.322856388850849900E-032, -1.207794842038649900E-016, 1.000000000000000000 ) ) ;
#103 = APPROVAL ( #194, 'UNSPECIFIED' ) ;
#104 = CARTESIAN_POINT ( 'NONE',  ( -4.943961906533900200E-014, 2.146279383696798600, -0.08289925154688195000 ) ) ;
#105 = CARTESIAN_POINT ( 'NONE',  ( -5.030698080332740600E-014, -2.146279383696795900, -0.08289925154686866900 ) ) ;
#106 = DATE_AND_TIME ( #182, #145 ) ;
#107 = CARTESIAN_POINT ( 'NONE',  ( 1.027450897999229200E-015, 6.350000000000000500, 0.2423552759559707800 ) ) ;
#108 = VECTOR ( 'NONE', #167, 1000.000000000000000 ) ;
#109 = APPLICATION_PROTOCOL_DEFINITION ( 'international standard', 'config_control_design', 1994, #143 ) ;
#110 = DATE_TIME_ROLE ( 'classification_date' ) ;
#111 = PERSON_AND_ORGANIZATION ( #78, #213 ) ;
#112 = CIRCLE ( 'NONE', #193, 83.31000000000000200 ) ;
#113 = DATE_AND_TIME ( #165, #162 ) ;
#114 = ORIENTED_EDGE ( 'NONE', *, *, #163, .T. ) ;
#115 = CC_DESIGN_APPROVAL ( #103, ( #53 ) ) ;
#116 = CIRCLE ( 'NONE', #83, 6.349999999999999600 ) ;
#117 = CARTESIAN_POINT ( 'NONE',  ( 2.498001805406600200E-016, 1.221245327087670000E-015, 0.2423552759559700300 ) ) ;
#118 = PERSON_AND_ORGANIZATION ( #78, #213 ) ;
#119 = CIRCLE ( 'NONE', #71, 6.349999999999999600 ) ;
#120 = CARTESIAN_POINT ( 'NONE',  ( 4.281206852588749000, -2.146279383696795500, -0.0004584992875984088600 ) ) ;
#121 = COORDINATED_UNIVERSAL_TIME_OFFSET ( 2, 0, .AHEAD. ) ;
#122 = ADVANCED_FACE ( 'NONE', ( #202 ), #180, .T. ) ;
#123 = CARTESIAN_POINT ( 'NONE',  ( -6.416256332189386800, -2.146279383696795900, 0.1643007711265611300 ) ) ;
#124 = CARTESIAN_POINT ( 'NONE',  ( 2.141397183506661900, 2.146279383696798200, -0.08289925154687022300 ) ) ;
#125 = APPROVAL_PERSON_ORGANIZATION ( #68, #103, #81 ) ;
#126 = CARTESIAN_POINT ( 'NONE',  ( 2.498001805406600200E-016, 1.221245327087670000E-015, 0.2423552759559700300 ) ) ;
#127 = CIRCLE ( 'NONE', #196, 6.349999999999999600 ) ;
#128 =( NAMED_UNIT ( * ) PLANE_ANGLE_UNIT ( ) SI_UNIT ( $, .RADIAN. ) );
#129 = APPROVAL_ROLE ( '' ) ;
#130 = CC_DESIGN_SECURITY_CLASSIFICATION ( #53, ( #181 ) ) ;
#131 = AXIS2_PLACEMENT_3D ( 'NONE', #212, #141, #29 ) ;
#132 = CARTESIAN_POINT ( 'NONE',  ( 2.498001805406600200E-016, 1.221245327087670000E-015, 0.2423552759559700300 ) ) ;
#133 = CARTESIAN_POINT ( 'NONE',  ( 4.264208755119305700, -6.426049417753815400, 0.3303172241368723100 ) ) ;
#134 = FACE_OUTER_BOUND ( 'NONE', #69, .T. ) ;
#135 = PRODUCT_RELATED_PRODUCT_CATEGORY ( 'detail', '', ( #34 ) ) ;
#136 = CARTESIAN_POINT ( 'NONE',  ( 1.932084044040601100E-016, 2.146279383696798600, -0.08289925154687023700 ) ) ;
#137 = DIRECTION ( 'NONE',  ( -2.322856388850849900E-032, -1.207794842038649900E-016, 1.000000000000000000 ) ) ;
#138 = CARTESIAN_POINT ( 'NONE',  ( -4.943961906533900200E-014, 6.426049417753819900, 0.2482037945206205200 ) ) ;
#139 = CARTESIAN_POINT ( 'NONE',  ( -6.390781237367109600, -6.426049417753816300, 0.4944223345830778300 ) ) ;
#140 = ADVANCED_BREP_SHAPE_REPRESENTATION ( '110-1121E UVFS pl-cx 12.7 F175', ( #19, #131 ), #16 ) ;
#141 = DIRECTION ( 'NONE',  ( 0.0000000000000000000, 0.0000000000000000000, 1.000000000000000000 ) ) ;
#142 = CC_DESIGN_PERSON_AND_ORGANIZATION_ASSIGNMENT ( #209, #27, ( #34 ) ) ;
#143 = APPLICATION_CONTEXT ( 'configuration controlled 3d designs of mechanical parts and assemblies' ) ;
#144 = DATE_TIME_ROLE ( 'creation_date' ) ;
#145 = LOCAL_TIME ( 16, 51, 39.00000000000000000, #121 ) ;
#146 = ORIENTED_EDGE ( 'NONE', *, *, #11, .T. ) ;
#147 = PRODUCT_DEFINITION ( 'UNKNOWN', '', #181, #96 ) ;
#148 = EDGE_LOOP ( 'NONE', ( #98, #43 ) ) ;
#149 = LOCAL_TIME ( 16, 51, 39.00000000000000000, #2 ) ;
#150 = APPROVAL ( #80, 'UNSPECIFIED' ) ;
#151 = DIRECTION ( 'NONE',  ( 1.000000000000000000, 1.229598738253770100E-031, -3.525219918788039800E-016 ) ) ;
#152 = CARTESIAN_POINT ( 'NONE',  ( 4.264208755119306600, 6.426049417753819000, 0.3303172241368584900 ) ) ;
#153 = CARTESIAN_POINT ( 'NONE',  ( 2.132894983239458100, 6.426049417753819000, 0.2482037945206322400 ) ) ;
#154 = APPROVAL_DATE_TIME ( #197, #103 ) ;
#155 = DIRECTION ( 'NONE',  ( 0.0000000000000000000, 0.0000000000000000000, 1.000000000000000000 ) ) ;
#156 = CIRCLE ( 'NONE', #205, 6.349999999999999600 ) ;
#157 = DIRECTION ( 'NONE',  ( 1.000000000000000000, 0.0000000000000000000, -0.0000000000000000000 ) ) ;
#158 = CC_DESIGN_PERSON_AND_ORGANIZATION_ASSIGNMENT ( #160, #33, ( #147 ) ) ;
#159 = DIRECTION ( 'NONE',  ( 0.0000000000000000000, -1.000000000000000000, -1.195183497228115300E-016 ) ) ;
#160 = PERSON_AND_ORGANIZATION ( #78, #213 ) ;
#161 = VERTEX_POINT ( 'NONE', #22 ) ;
#162 = LOCAL_TIME ( 16, 51, 39.00000000000000000, #40 ) ;
#163 = EDGE_CURVE ( 'NONE', #3, #161, #156, .T. ) ;
#164 =( BOUNDED_SURFACE ( )  B_SPLINE_SURFACE ( 3, 3, ( 
 ( #38, #101, #133, #170 ),
 ( #67, #70, #120, #183 ),
 ( #136, #124, #188, #42 ),
 ( #5, #153, #152, #60 ) ),
 .UNSPECIFIED., .F., .F., .F. ) 
 B_SPLINE_SURFACE_WITH_KNOTS ( ( 4, 4 ),
 ( 4, 4 ),
 ( 0.0000000000000000000, 1.000000000000000000 ),
 ( 0.0000000000000000000, 1.000000000000000000 ),
 .UNSPECIFIED. ) 
 GEOMETRIC_REPRESENTATION_ITEM ( )  RATIONAL_B_SPLINE_SURFACE ( (
 ( 1.000000000000000000, 0.9995057698973979200, 0.9995057698973979200, 1.000000000000000000),
 ( 0.9980138135116181100, 0.9975205650421680200, 0.9975205650421680200, 0.9980138135116181100),
 ( 0.9980138135116181100, 0.9975205650421680200, 0.9975205650421680200, 0.9980138135116181100),
 ( 1.000000000000000000, 0.9995057698973979200, 0.9995057698973979200, 1.000000000000000000) ) ) 
 REPRESENTATION_ITEM ( '' )  SURFACE ( )  );
#165 = CALENDAR_DATE ( 2018, 13, 12 ) ;
#166 = CC_DESIGN_DATE_AND_TIME_ASSIGNMENT ( #51, #144, ( #147 ) ) ;
#167 = DIRECTION ( 'NONE',  ( -2.322856388850849900E-032, -1.207794842038649900E-016, 1.000000000000000000 ) ) ;
#168 = LOCAL_TIME ( 16, 51, 39.00000000000000000, #35 ) ;
#169 = DIRECTION ( 'NONE',  ( 0.0000000000000000000, -1.000000000000000000, -1.195183497228115300E-016 ) ) ;
#170 = CARTESIAN_POINT ( 'NONE',  ( 6.390781237367085600, -6.426049417753816300, 0.4944223345830863800 ) ) ;
#171 = FACE_OUTER_BOUND ( 'NONE', #214, .T. ) ;
#172 = CARTESIAN_POINT ( 'NONE',  ( 2.498001805406599800E-016, 8.881784197001225700E-016, 3.000000000000000000 ) ) ;
#173 = ORIENTED_EDGE ( 'NONE', *, *, #208, .F. ) ;
#174 = APPROVAL_ROLE ( '' ) ;
#175 = CC_DESIGN_APPROVAL ( #150, ( #147 ) ) ;
#176 = DIRECTION ( 'NONE',  ( 2.322856388850849900E-032, 1.207794842038649900E-016, -1.000000000000000000 ) ) ;
#177 = PERSON_AND_ORGANIZATION_ROLE ( 'design_supplier' ) ;
#178 = VECTOR ( 'NONE', #102, 1000.000000000000000 ) ;
#179 = CALENDAR_DATE ( 2018, 13, 12 ) ;
#180 =( BOUNDED_SURFACE ( )  B_SPLINE_SURFACE ( 3, 3, ( 
 ( #139, #207, #72, #189 ),
 ( #123, #41, #59, #105 ),
 ( #90, #89, #204, #104 ),
 ( #26, #73, #187, #138 ) ),
 .UNSPECIFIED., .F., .F., .F. ) 
 B_SPLINE_SURFACE_WITH_KNOTS ( ( 4, 4 ),
 ( 4, 4 ),
 ( 0.0000000000000000000, 1.000000000000000000 ),
 ( 0.0000000000000000000, 1.000000000000000000 ),
 .UNSPECIFIED. ) 
 GEOMETRIC_REPRESENTATION_ITEM ( )  RATIONAL_B_SPLINE_SURFACE ( (
 ( 1.000000000000000000, 0.9995057698973979200, 0.9995057698973979200, 1.000000000000000000),
 ( 0.9980138135116181100, 0.9975205650421680200, 0.9975205650421680200, 0.9980138135116181100),
 ( 0.9980138135116181100, 0.9975205650421680200, 0.9975205650421680200, 0.9980138135116181100),
 ( 1.000000000000000000, 0.9995057698973979200, 0.9995057698973979200, 1.000000000000000000) ) ) 
 REPRESENTATION_ITEM ( '' )  SURFACE ( )  );
#181 = PRODUCT_DEFINITION_FORMATION_WITH_SPECIFIED_SOURCE ( 'ANY', '', #34, .NOT_KNOWN. ) ;
#182 = CALENDAR_DATE ( 2018, 13, 12 ) ;
#183 = CARTESIAN_POINT ( 'NONE',  ( 6.416256332189363800, -2.146279383696795900, 0.1643007711265697100 ) ) ;
#184 = DIRECTION ( 'NONE',  ( 2.322856388850849900E-032, 1.207794842038649900E-016, -1.000000000000000000 ) ) ;
#185 = APPROVAL ( #32, 'UNSPECIFIED' ) ;
#186 = CYLINDRICAL_SURFACE ( 'NONE', #66, 6.349999999999999600 ) ;
#187 = CARTESIAN_POINT ( 'NONE',  ( -2.132894983239499400, 6.426049417753819000, 0.2482037945206217700 ) ) ;
#188 = CARTESIAN_POINT ( 'NONE',  ( 4.281206852588749900, 2.146279383696798200, -0.0004584992876117174400 ) ) ;
#189 = CARTESIAN_POINT ( 'NONE',  ( -5.030698080332740600E-014, -6.426049417753816300, 0.2482037945206344000 ) ) ;
#190 = DATE_AND_TIME ( #17, #168 ) ;
#191 = ORIENTED_EDGE ( 'NONE', *, *, #36, .T. ) ;
#192 = CARTESIAN_POINT ( 'NONE',  ( 2.498001805406600200E-016, 1.221245327087670000E-015, 0.2423552759559700300 ) ) ;
#193 = AXIS2_PLACEMENT_3D ( 'NONE', #21, #151, #97 ) ;
#194 = APPROVAL_STATUS ( 'not_yet_approved' ) ;
#195 = EDGE_LOOP ( 'NONE', ( #24, #10, #146, #114 ) ) ;
#196 = AXIS2_PLACEMENT_3D ( 'NONE', #55, #184, #4 ) ;
#197 = DATE_AND_TIME ( #74, #65 ) ;
#198 = LINE ( 'NONE', #58, #178 ) ;
#199 = FACE_OUTER_BOUND ( 'NONE', #195, .T. ) ;
#200 = CARTESIAN_POINT ( 'NONE',  ( 2.498001805406600200E-016, -6.349999999999998800, 0.2423552759559692600 ) ) ;
#201 = AXIS2_PLACEMENT_3D ( 'NONE', #76, #155, #157 ) ;
#202 = FACE_OUTER_BOUND ( 'NONE', #30, .T. ) ;
#203 = ORIENTED_EDGE ( 'NONE', *, *, #11, .F. ) ;
#204 = CARTESIAN_POINT ( 'NONE',  ( -2.141397183506703200, 2.146279383696798200, -0.08289925154688067300 ) ) ;
#205 = AXIS2_PLACEMENT_3D ( 'NONE', #172, #94, #45 ) ;
#206 = APPROVAL_PERSON_ORGANIZATION ( #61, #150, #129 ) ;
#207 = CARTESIAN_POINT ( 'NONE',  ( -4.264208755119338600, -6.426049417753815400, 0.3303172241368637600 ) ) ;
#208 = EDGE_CURVE ( 'NONE', #88, #54, #116, .T. ) ;
#209 = PERSON_AND_ORGANIZATION ( #78, #213 ) ;
#210 = ADVANCED_FACE ( 'NONE', ( #199 ), #9, .T. ) ;
#211 = CC_DESIGN_APPROVAL ( #185, ( #181 ) ) ;
#212 = CARTESIAN_POINT ( 'NONE',  ( 0.0000000000000000000, 0.0000000000000000000, 0.0000000000000000000 ) ) ;
#213 = ORGANIZATION ( 'UNSPECIFIED', 'UNSPECIFIED', '' ) ;
#214 = EDGE_LOOP ( 'NONE', ( #56, #18 ) ) ;
#215 = PRODUCT_DEFINITION_SHAPE ( 'NONE', 'NONE',  #147 ) ;
ENDSEC;
END-ISO-10303-21;
