ISO-10303-21;
HEADER;
FILE_DESCRIPTION (( 'STEP AP203' ),
    '1' );
FILE_NAME ('110-1119E UVFS pl-cx 12.7 F150.STEP',
    '2018-12-13T14:51:51',
    ( '' ),
    ( '' ),
    'SwSTEP 2.0',
    'SolidWorks 2017',
    '' );
FILE_SCHEMA (( 'CONFIG_CONTROL_DESIGN' ));
ENDSEC;

DATA;
#1 = DATE_TIME_ROLE ( 'classification_date' ) ;
#2 = ADVANCED_FACE ( 'NONE', ( #40 ), #118, .T. ) ;
#3 = DATE_AND_TIME ( #58, #119 ) ;
#4 = SHAPE_DEFINITION_REPRESENTATION ( #25, #150 ) ;
#5 = ORIENTED_EDGE ( 'NONE', *, *, #125, .F. ) ;
#6 = APPROVAL_DATE_TIME ( #12, #51 ) ;
#7 = CARTESIAN_POINT ( 'NONE',  ( 2.498001805406599800E-016, 8.881784197001233600E-016, 3.000000000000000000 ) ) ;
#8 = EDGE_LOOP ( 'NONE', ( #152, #16 ) ) ;
#9 = CARTESIAN_POINT ( 'NONE',  ( 2.498001805406600200E-016, 1.221245327087670000E-015, 0.2828912439146030200 ) ) ;
#10 = DIRECTION ( 'NONE',  ( 0.0000000000000000000, -1.000000000000000000, -1.195183497228115300E-016 ) ) ;
#11 = CARTESIAN_POINT ( 'NONE',  ( 2.143103745707787500, -2.147807523514944100, -0.09683415922006595500 ) ) ;
#12 = DATE_AND_TIME ( #183, #42 ) ;
#13 = ORIENTED_EDGE ( 'NONE', *, *, #97, .T. ) ;
#14 = APPLICATION_CONTEXT ( 'configuration controlled 3d designs of mechanical parts and assemblies' ) ;
#15 = AXIS2_PLACEMENT_3D ( 'NONE', #128, #159, #10 ) ;
#16 = ORIENTED_EDGE ( 'NONE', *, *, #23, .F. ) ;
#17 = APPROVAL_STATUS ( 'not_yet_approved' ) ;
#18 = PERSON_AND_ORGANIZATION_ROLE ( 'design_owner' ) ;
#19 = DATE_TIME_ROLE ( 'creation_date' ) ;
#20 = APPROVAL_DATE_TIME ( #188, #180 ) ;
#21 = CC_DESIGN_APPROVAL ( #51, ( #73 ) ) ;
#22 = LOCAL_TIME ( 16, 51, 51.00000000000000000, #68 ) ;
#23 = EDGE_CURVE ( 'NONE', #84, #46, #28, .T. ) ;
#24 = CARTESIAN_POINT ( 'NONE',  ( -4.284043669801510700, 2.147807523514940500, -0.0005538066629460819300 ) ) ;
#25 = PRODUCT_DEFINITION_SHAPE ( 'NONE', 'NONE',  #170 ) ;
#26 = ORIENTED_EDGE ( 'NONE', *, *, #23, .T. ) ;
#27 = CARTESIAN_POINT ( 'NONE',  ( 4.260885030678625900, 6.425994876635527000, 0.3854766292142203200 ) ) ;
#28 = CIRCLE ( 'NONE', #48, 6.349999999999999600 ) ;
#29 = CARTESIAN_POINT ( 'NONE',  ( 0.0000000000000000000, 0.0000000000000000000, 0.0000000000000000000 ) ) ;
#30 = MECHANICAL_CONTEXT ( 'NONE', #49, 'mechanical' ) ;
#31 = CIRCLE ( 'NONE', #44, 71.40999999999999700 ) ;
#32 = PERSON_AND_ORGANIZATION_ROLE ( 'creator' ) ;
#33 = DESIGN_CONTEXT ( 'detailed design', #14, 'design' ) ;
#34 = EDGE_CURVE ( 'NONE', #191, #84, #71, .T. ) ;
#35 = EDGE_LOOP ( 'NONE', ( #127, #200, #74, #215 ) ) ;
#36 = DIRECTION ( 'NONE',  ( -2.357510589548589900E-032, -1.225813676547140000E-016, 1.000000000000000000 ) ) ;
#37 = APPROVAL ( #163, 'UNSPECIFIED' ) ;
#38 = CARTESIAN_POINT ( 'NONE',  ( -2.602085213965210600E-015, 2.147807523514940500, -0.09683415922008023500 ) ) ;
#39 = DATE_AND_TIME ( #86, #54 ) ;
#40 = FACE_OUTER_BOUND ( 'NONE', #121, .T. ) ;
#41 = CARTESIAN_POINT ( 'NONE',  ( 6.383799456303626700, 6.425994876635527000, 0.5768030204258431900 ) ) ;
#42 = LOCAL_TIME ( 16, 51, 51.00000000000000000, #64 ) ;
#43 = APPLICATION_PROTOCOL_DEFINITION ( 'international standard', 'config_control_design', 1994, #14 ) ;
#44 = AXIS2_PLACEMENT_3D ( 'NONE', #60, #145, #108 ) ;
#45 = EDGE_LOOP ( 'NONE', ( #13, #75 ) ) ;
#46 = VERTEX_POINT ( 'NONE', #57 ) ;
#47 = ADVANCED_FACE ( 'NONE', ( #56 ), #133, .T. ) ;
#48 = AXIS2_PLACEMENT_3D ( 'NONE', #7, #122, #141 ) ;
#49 = APPLICATION_CONTEXT ( 'configuration controlled 3d designs of mechanical parts and assemblies' ) ;
#50 = PERSON_AND_ORGANIZATION ( #70, #193 ) ;
#51 = APPROVAL ( #148, 'UNSPECIFIED' ) ;
#52 = ORIENTED_EDGE ( 'NONE', *, *, #97, .F. ) ;
#53 = PRODUCT_DEFINITION_FORMATION_WITH_SPECIFIED_SOURCE ( 'ANY', '', #61, .NOT_KNOWN. ) ;
#54 = LOCAL_TIME ( 16, 51, 51.00000000000000000, #96 ) ;
#55 = MANIFOLD_SOLID_BREP ( 'Imported1', #177 ) ;
#56 = FACE_OUTER_BOUND ( 'NONE', #105, .T. ) ;
#57 = CARTESIAN_POINT ( 'NONE',  ( 2.498001805406599800E-016, -6.349999999999998800, 2.999999999999999100 ) ) ;
#58 = CALENDAR_DATE ( 2018, 13, 12 ) ;
#59 =( GEOMETRIC_REPRESENTATION_CONTEXT ( 3 ) GLOBAL_UNCERTAINTY_ASSIGNED_CONTEXT ( ( #106 ) ) GLOBAL_UNIT_ASSIGNED_CONTEXT ( ( #178, #213, #176 ) ) REPRESENTATION_CONTEXT ( 'NONE', 'WORKASPACE' ) );
#60 = CARTESIAN_POINT ( 'NONE',  ( 2.842170943040400100E-014, 7.105427357601000300E-015, 71.40999999999999700 ) ) ;
#61 = PRODUCT ( '110-1119E UVFS pl-cx 12.7 F150', '110-1119E UVFS pl-cx 12.7 F150', '', ( #30 ) ) ;
#62 = CARTESIAN_POINT ( 'NONE',  ( 2.131518577564078100, -6.425994876635529700, 0.2897167479947855800 ) ) ;
#63 = CARTESIAN_POINT ( 'NONE',  ( 2.704424741496966000E-016, 6.425994876635527000, 0.2897167479947726500 ) ) ;
#64 = COORDINATED_UNIVERSAL_TIME_OFFSET ( 2, 0, .AHEAD. ) ;
#65 = CIRCLE ( 'NONE', #87, 6.349999999999999600 ) ;
#66 = CC_DESIGN_PERSON_AND_ORGANIZATION_ASSIGNMENT ( #208, #135, ( #53 ) ) ;
#67 = DIRECTION ( 'NONE',  ( 2.357510589548589900E-032, 1.225813676547140000E-016, -1.000000000000000000 ) ) ;
#68 = COORDINATED_UNIVERSAL_TIME_OFFSET ( 2, 0, .AHEAD. ) ;
#69 = CYLINDRICAL_SURFACE ( 'NONE', #212, 6.349999999999999600 ) ;
#70 = PERSON ( 'UNSPECIFIED', 'UNSPECIFIED', 'UNSPECIFIED', ('UNSPECIFIED'), ('UNSPECIFIED'), ('UNSPECIFIED') ) ;
#71 = LINE ( 'NONE', #139, #167 ) ;
#72 = AXIS2_PLACEMENT_3D ( 'NONE', #29, #166, #146 ) ;
#73 = SECURITY_CLASSIFICATION ( '', '', #81 ) ;
#74 = ORIENTED_EDGE ( 'NONE', *, *, #157, .T. ) ;
#75 = ORIENTED_EDGE ( 'NONE', *, *, #125, .T. ) ;
#76 = CARTESIAN_POINT ( 'NONE',  ( 2.704424741497027700E-016, -6.425994876635529700, 0.2897167479947865300 ) ) ;
#77 = CARTESIAN_POINT ( 'NONE',  ( 2.131518577564078600, 6.425994876635527000, 0.2897167479947717100 ) ) ;
#78 = CARTESIAN_POINT ( 'NONE',  ( 2.498001805406599800E-016, 8.881784197001233600E-016, 3.000000000000000000 ) ) ;
#79 = CARTESIAN_POINT ( 'NONE',  ( 1.174355219328636700E-016, -2.147807523514943600, -0.09683415922006510800 ) ) ;
#80 = PERSON_AND_ORGANIZATION_ROLE ( 'classification_officer' ) ;
#81 = SECURITY_CLASSIFICATION_LEVEL ( 'unclassified' ) ;
#82 = CALENDAR_DATE ( 2018, 13, 12 ) ;
#83 = APPROVAL_ROLE ( '' ) ;
#84 = VERTEX_POINT ( 'NONE', #207 ) ;
#85 = CC_DESIGN_PERSON_AND_ORGANIZATION_ASSIGNMENT ( #109, #32, ( #170 ) ) ;
#86 = CALENDAR_DATE ( 2018, 13, 12 ) ;
#87 = AXIS2_PLACEMENT_3D ( 'NONE', #164, #67, #113 ) ;
#88 = CARTESIAN_POINT ( 'NONE',  ( 2.498001805406600200E-016, 1.221245327087670000E-015, 0.2828912439146030200 ) ) ;
#89 = CARTESIAN_POINT ( 'NONE',  ( -6.418496498532400500, -2.147807523514943600, 0.1918124762183470700 ) ) ;
#90 = LINE ( 'NONE', #190, #156 ) ;
#91 = DIRECTION ( 'NONE',  ( -2.357510589548589900E-032, -1.225813676547140000E-016, 1.000000000000000000 ) ) ;
#92 = CARTESIAN_POINT ( 'NONE',  ( 4.284043669801460100, 2.147807523514940500, -0.0005538066629530208300 ) ) ;
#93 = CARTESIAN_POINT ( 'NONE',  ( 6.383799456303624900, -6.425994876635529700, 0.5768030204258568500 ) ) ;
#94 = CARTESIAN_POINT ( 'NONE',  ( 0.0000000000000000000, 13.15799999999999900, 3.000000000000000000 ) ) ;
#95 = DIRECTION ( 'NONE',  ( 0.0000000000000000000, -1.000000000000000000, -1.195183497228115300E-016 ) ) ;
#96 = COORDINATED_UNIVERSAL_TIME_OFFSET ( 2, 0, .AHEAD. ) ;
#97 = EDGE_CURVE ( 'NONE', #191, #138, #161, .T. ) ;
#98 = COORDINATED_UNIVERSAL_TIME_OFFSET ( 2, 0, .AHEAD. ) ;
#99 = ADVANCED_FACE ( 'NONE', ( #143 ), #173, .T. ) ;
#100 = APPROVAL_PERSON_ORGANIZATION ( #199, #37, #132 ) ;
#101 = AXIS2_PLACEMENT_3D ( 'NONE', #78, #175, #112 ) ;
#102 = PERSON_AND_ORGANIZATION ( #70, #193 ) ;
#103 = CARTESIAN_POINT ( 'NONE',  ( -2.131518577564105700, 6.425994876635527000, 0.2897167479947713700 ) ) ;
#104 = CARTESIAN_POINT ( 'NONE',  ( -2.602085213965210600E-015, 6.425994876635527000, 0.2897167479947704800 ) ) ;
#105 = EDGE_LOOP ( 'NONE', ( #5, #168 ) ) ;
#106 = UNCERTAINTY_MEASURE_WITH_UNIT (LENGTH_MEASURE( 1.000000000000000100E-005 ), #178, 'distance_accuracy_value', 'NONE');
#107 = CARTESIAN_POINT ( 'NONE',  ( -2.131518577564106100, -6.425994876635529700, 0.2897167479947853100 ) ) ;
#108 = DIRECTION ( 'NONE',  ( 0.0000000000000000000, -1.000000000000000000, -3.886791151887539000E-016 ) ) ;
#109 = PERSON_AND_ORGANIZATION ( #70, #193 ) ;
#110 = DIRECTION ( 'NONE',  ( 0.0000000000000000000, 0.0000000000000000000, 1.000000000000000000 ) ) ;
#111 = CARTESIAN_POINT ( 'NONE',  ( 2.498001805406600200E-016, -6.349999999999998800, 0.2828912439146023000 ) ) ;
#112 = DIRECTION ( 'NONE',  ( 0.0000000000000000000, -1.000000000000000000, -1.365923996832131600E-016 ) ) ;
#113 = DIRECTION ( 'NONE',  ( 0.0000000000000000000, -1.000000000000000000, -1.195183497228115300E-016 ) ) ;
#114 = LOCAL_TIME ( 16, 51, 51.00000000000000000, #98 ) ;
#115 = PERSON_AND_ORGANIZATION_ROLE ( 'design_supplier' ) ;
#116 = FACE_OUTER_BOUND ( 'NONE', #8, .T. ) ;
#117 = CC_DESIGN_PERSON_AND_ORGANIZATION_ASSIGNMENT ( #149, #115, ( #53 ) ) ;
#118 = CYLINDRICAL_SURFACE ( 'NONE', #205, 6.349999999999999600 ) ;
#119 = LOCAL_TIME ( 16, 51, 51.00000000000000000, #181 ) ;
#120 = CARTESIAN_POINT ( 'NONE',  ( -4.260885030678675600, -6.425994876635529700, 0.3854766292142411400 ) ) ;
#121 = EDGE_LOOP ( 'NONE', ( #52, #203, #26, #160 ) ) ;
#122 = DIRECTION ( 'NONE',  ( 2.357510589548589900E-032, 1.225813676547140000E-016, -1.000000000000000000 ) ) ;
#123 = CARTESIAN_POINT ( 'NONE',  ( -4.284043669801512500, -2.147807523514944100, -0.0005538066629331797100 ) ) ;
#124 = CARTESIAN_POINT ( 'NONE',  ( -6.418496498532400500, 2.147807523514940100, 0.1918124762183341700 ) ) ;
#125 = EDGE_CURVE ( 'NONE', #138, #191, #31, .T. ) ;
#126 = APPROVAL_PERSON_ORGANIZATION ( #214, #180, #136 ) ;
#127 = ORIENTED_EDGE ( 'NONE', *, *, #34, .F. ) ;
#128 = CARTESIAN_POINT ( 'NONE',  ( 2.498001805406600200E-016, 1.221245327087670000E-015, 0.2828912439146030200 ) ) ;
#129 = CARTESIAN_POINT ( 'NONE',  ( 6.418496498532325000, 2.147807523514940100, 0.1918124762183210900 ) ) ;
#130 = CARTESIAN_POINT ( 'NONE',  ( 2.143103745707787500, 2.147807523514940500, -0.09683415922007883300 ) ) ;
#131 = CC_DESIGN_PERSON_AND_ORGANIZATION_ASSIGNMENT ( #102, #80, ( #73 ) ) ;
#132 = APPROVAL_ROLE ( '' ) ;
#133 =( BOUNDED_SURFACE ( )  B_SPLINE_SURFACE ( 3, 3, ( 
 ( #186, #120, #107, #142 ),
 ( #89, #123, #172, #182 ),
 ( #124, #24, #202, #38 ),
 ( #158, #201, #103, #104 ) ),
 .UNSPECIFIED., .F., .F., .F. ) 
 B_SPLINE_SURFACE_WITH_KNOTS ( ( 4, 4 ),
 ( 4, 4 ),
 ( 0.0000000000000000000, 1.000000000000000000 ),
 ( 0.0000000000000000000, 1.000000000000000000 ),
 .UNSPECIFIED. ) 
 GEOMETRIC_REPRESENTATION_ITEM ( )  RATIONAL_B_SPLINE_SURFACE ( (
 ( 1.000000000000000000, 0.9993268885159517500, 0.9993268885159517500, 1.000000000000000000),
 ( 0.9972952737899005700, 0.9966239828881255900, 0.9966239828881255900, 0.9972952737899005700),
 ( 0.9972952737899005700, 0.9966239828881255900, 0.9966239828881255900, 0.9972952737899005700),
 ( 1.000000000000000000, 0.9993268885159517500, 0.9993268885159517500, 1.000000000000000000) ) ) 
 REPRESENTATION_ITEM ( '' )  SURFACE ( )  );
#134 = APPROVAL_DATE_TIME ( #154, #37 ) ;
#135 = PERSON_AND_ORGANIZATION_ROLE ( 'creator' ) ;
#136 = APPROVAL_ROLE ( '' ) ;
#137 = ADVANCED_FACE ( 'NONE', ( #116 ), #189, .T. ) ;
#138 = VERTEX_POINT ( 'NONE', #111 ) ;
#139 = CARTESIAN_POINT ( 'NONE',  ( 1.027450897999229200E-015, 6.350000000000000500, 0.2828912439146038000 ) ) ;
#140 = CC_DESIGN_DATE_AND_TIME_ASSIGNMENT ( #3, #1, ( #73 ) ) ;
#141 = DIRECTION ( 'NONE',  ( 0.0000000000000000000, -1.000000000000000000, -1.365923996832131600E-016 ) ) ;
#142 = CARTESIAN_POINT ( 'NONE',  ( -3.469446951953614200E-015, -6.425994876635529700, 0.2897167479947843600 ) ) ;
#143 = FACE_OUTER_BOUND ( 'NONE', #45, .T. ) ;
#144 = DIRECTION ( 'NONE',  ( 1.000000000000000000, 0.0000000000000000000, -0.0000000000000000000 ) ) ;
#145 = DIRECTION ( 'NONE',  ( 1.000000000000000000, 8.367767716424150400E-032, -2.056337147698020000E-016 ) ) ;
#146 = DIRECTION ( 'NONE',  ( 1.000000000000000000, 0.0000000000000000000, 0.0000000000000000000 ) ) ;
#147 = PERSON_AND_ORGANIZATION ( #70, #193 ) ;
#148 = APPROVAL_STATUS ( 'not_yet_approved' ) ;
#149 = PERSON_AND_ORGANIZATION ( #70, #193 ) ;
#150 = ADVANCED_BREP_SHAPE_REPRESENTATION ( '110-1119E UVFS pl-cx 12.7 F150', ( #55, #72 ), #59 ) ;
#151 = APPROVAL_PERSON_ORGANIZATION ( #50, #51, #83 ) ;
#152 = ORIENTED_EDGE ( 'NONE', *, *, #153, .F. ) ;
#153 = EDGE_CURVE ( 'NONE', #46, #84, #179, .T. ) ;
#154 = DATE_AND_TIME ( #169, #114 ) ;
#155 = DIRECTION ( 'NONE',  ( -2.357510589548589900E-032, -1.225813676547140000E-016, 1.000000000000000000 ) ) ;
#156 = VECTOR ( 'NONE', #91, 1000.000000000000000 ) ;
#157 = EDGE_CURVE ( 'NONE', #138, #46, #90, .T. ) ;
#158 = CARTESIAN_POINT ( 'NONE',  ( -6.383799456303701300, 6.425994876635527000, 0.5768030204258561800 ) ) ;
#159 = DIRECTION ( 'NONE',  ( 2.357510589548589900E-032, 1.225813676547140000E-016, -1.000000000000000000 ) ) ;
#160 = ORIENTED_EDGE ( 'NONE', *, *, #157, .F. ) ;
#161 = CIRCLE ( 'NONE', #15, 6.349999999999999600 ) ;
#162 = CARTESIAN_POINT ( 'NONE',  ( 4.260885030678625000, -6.425994876635529700, 0.3854766292142340900 ) ) ;
#163 = APPROVAL_STATUS ( 'not_yet_approved' ) ;
#164 = CARTESIAN_POINT ( 'NONE',  ( 2.498001805406600200E-016, 1.221245327087670000E-015, 0.2828912439146030200 ) ) ;
#165 = CC_DESIGN_APPROVAL ( #37, ( #170 ) ) ;
#166 = DIRECTION ( 'NONE',  ( 0.0000000000000000000, 0.0000000000000000000, 1.000000000000000000 ) ) ;
#167 = VECTOR ( 'NONE', #36, 1000.000000000000000 ) ;
#168 = ORIENTED_EDGE ( 'NONE', *, *, #184, .T. ) ;
#169 = CALENDAR_DATE ( 2018, 13, 12 ) ;
#170 = PRODUCT_DEFINITION ( 'UNKNOWN', '', #53, #33 ) ;
#171 = CC_DESIGN_DATE_AND_TIME_ASSIGNMENT ( #39, #19, ( #170 ) ) ;
#172 = CARTESIAN_POINT ( 'NONE',  ( -2.143103745707815000, -2.147807523514943600, -0.09683415922006644000 ) ) ;
#173 =( BOUNDED_SURFACE ( )  B_SPLINE_SURFACE ( 3, 3, ( 
 ( #76, #62, #162, #93 ),
 ( #79, #11, #210, #174 ),
 ( #187, #130, #92, #129 ),
 ( #63, #77, #27, #41 ) ),
 .UNSPECIFIED., .F., .F., .F. ) 
 B_SPLINE_SURFACE_WITH_KNOTS ( ( 4, 4 ),
 ( 4, 4 ),
 ( 0.0000000000000000000, 1.000000000000000000 ),
 ( 0.0000000000000000000, 1.000000000000000000 ),
 .UNSPECIFIED. ) 
 GEOMETRIC_REPRESENTATION_ITEM ( )  RATIONAL_B_SPLINE_SURFACE ( (
 ( 1.000000000000000000, 0.9993268885159517500, 0.9993268885159517500, 1.000000000000000000),
 ( 0.9972952737899005700, 0.9966239828881255900, 0.9966239828881255900, 0.9972952737899005700),
 ( 0.9972952737899005700, 0.9966239828881255900, 0.9966239828881255900, 0.9972952737899005700),
 ( 1.000000000000000000, 0.9993268885159517500, 0.9993268885159517500, 1.000000000000000000) ) ) 
 REPRESENTATION_ITEM ( '' )  SURFACE ( )  );
#174 = CARTESIAN_POINT ( 'NONE',  ( 6.418496498532324100, -2.147807523514943600, 0.1918124762183338900 ) ) ;
#175 = DIRECTION ( 'NONE',  ( 2.357510589548589900E-032, 1.225813676547140000E-016, -1.000000000000000000 ) ) ;
#176 =( NAMED_UNIT ( * ) SI_UNIT ( $, .STERADIAN. ) SOLID_ANGLE_UNIT ( ) );
#177 = CLOSED_SHELL ( 'NONE', ( #99, #2, #47, #195, #137 ) ) ;
#178 =( LENGTH_UNIT ( ) NAMED_UNIT ( * ) SI_UNIT ( .MILLI., .METRE. ) );
#179 = CIRCLE ( 'NONE', #101, 6.349999999999999600 ) ;
#180 = APPROVAL ( #17, 'UNSPECIFIED' ) ;
#181 = COORDINATED_UNIVERSAL_TIME_OFFSET ( 2, 0, .AHEAD. ) ;
#182 = CARTESIAN_POINT ( 'NONE',  ( -4.336808689942017700E-015, -2.147807523514943200, -0.09683415922006745300 ) ) ;
#183 = CALENDAR_DATE ( 2018, 13, 12 ) ;
#184 = EDGE_CURVE ( 'NONE', #138, #191, #65, .T. ) ;
#185 = CC_DESIGN_SECURITY_CLASSIFICATION ( #73, ( #53 ) ) ;
#186 = CARTESIAN_POINT ( 'NONE',  ( -6.383799456303700400, -6.425994876635529700, 0.5768030204258700600 ) ) ;
#187 = CARTESIAN_POINT ( 'NONE',  ( 1.174355219328593100E-016, 2.147807523514940100, -0.09683415922007802800 ) ) ;
#188 = DATE_AND_TIME ( #82, #22 ) ;
#189 = PLANE ( 'NONE',  #197 ) ;
#190 = CARTESIAN_POINT ( 'NONE',  ( 2.498001805406600200E-016, -6.349999999999998800, 0.2828912439146023000 ) ) ;
#191 = VERTEX_POINT ( 'NONE', #211 ) ;
#192 = CC_DESIGN_APPROVAL ( #180, ( #53 ) ) ;
#193 = ORGANIZATION ( 'UNSPECIFIED', 'UNSPECIFIED', '' ) ;
#194 = APPLICATION_PROTOCOL_DEFINITION ( 'international standard', 'config_control_design', 1994, #49 ) ;
#195 = ADVANCED_FACE ( 'NONE', ( #196 ), #69, .T. ) ;
#196 = FACE_OUTER_BOUND ( 'NONE', #35, .T. ) ;
#197 = AXIS2_PLACEMENT_3D ( 'NONE', #94, #110, #144 ) ;
#198 = PRODUCT_RELATED_PRODUCT_CATEGORY ( 'detail', '', ( #61 ) ) ;
#199 = PERSON_AND_ORGANIZATION ( #70, #193 ) ;
#200 = ORIENTED_EDGE ( 'NONE', *, *, #184, .F. ) ;
#201 = CARTESIAN_POINT ( 'NONE',  ( -4.260885030678676500, 6.425994876635527000, 0.3854766292142272100 ) ) ;
#202 = CARTESIAN_POINT ( 'NONE',  ( -2.143103745707813700, 2.147807523514941000, -0.09683415922007927700 ) ) ;
#203 = ORIENTED_EDGE ( 'NONE', *, *, #34, .T. ) ;
#204 = DIRECTION ( 'NONE',  ( 0.0000000000000000000, -1.000000000000000000, -1.195183497228115300E-016 ) ) ;
#205 = AXIS2_PLACEMENT_3D ( 'NONE', #88, #155, #204 ) ;
#206 = CC_DESIGN_PERSON_AND_ORGANIZATION_ASSIGNMENT ( #147, #18, ( #61 ) ) ;
#207 = CARTESIAN_POINT ( 'NONE',  ( 1.027450897999229200E-015, 6.350000000000000500, 3.000000000000000900 ) ) ;
#208 = PERSON_AND_ORGANIZATION ( #70, #193 ) ;
#209 = DIRECTION ( 'NONE',  ( -2.357510589548589900E-032, -1.225813676547140000E-016, 1.000000000000000000 ) ) ;
#210 = CARTESIAN_POINT ( 'NONE',  ( 4.284043669801459200, -2.147807523514944100, -0.0005538066629401458200 ) ) ;
#211 = CARTESIAN_POINT ( 'NONE',  ( 1.027450897999229200E-015, 6.350000000000000500, 0.2828912439146038000 ) ) ;
#212 = AXIS2_PLACEMENT_3D ( 'NONE', #9, #209, #95 ) ;
#213 =( NAMED_UNIT ( * ) PLANE_ANGLE_UNIT ( ) SI_UNIT ( $, .RADIAN. ) );
#214 = PERSON_AND_ORGANIZATION ( #70, #193 ) ;
#215 = ORIENTED_EDGE ( 'NONE', *, *, #153, .T. ) ;
ENDSEC;
END-ISO-10303-21;
