ISO-10303-21;
HEADER;
FILE_DESCRIPTION (( 'STEP AP203' ),
    '1' );
FILE_NAME ('110-1117E UVFS pl-cx 12.7 F125.STEP',
    '2018-12-13T14:52:07',
    ( '' ),
    ( '' ),
    'SwSTEP 2.0',
    'SolidWorks 2017',
    '' );
FILE_SCHEMA (( 'CONFIG_CONTROL_DESIGN' ));
ENDSEC;

DATA;
#1 = CARTESIAN_POINT ( 'NONE',  ( 7.105427357601000300E-015, 0.0000000000000000000, 59.50999999999999800 ) ) ;
#2 = ORIENTED_EDGE ( 'NONE', *, *, #109, .F. ) ;
#3 = AXIS2_PLACEMENT_3D ( 'NONE', #72, #159, #83 ) ;
#4 =( NAMED_UNIT ( * ) SI_UNIT ( $, .STERADIAN. ) SOLID_ANGLE_UNIT ( ) );
#5 = APPLICATION_PROTOCOL_DEFINITION ( 'international standard', 'config_control_design', 1994, #100 ) ;
#6 = CALENDAR_DATE ( 2018, 13, 12 ) ;
#7 = AXIS2_PLACEMENT_3D ( 'NONE', #164, #117, #200 ) ;
#8 = CC_DESIGN_PERSON_AND_ORGANIZATION_ASSIGNMENT ( #81, #150, ( #13 ) ) ;
#9 = FACE_OUTER_BOUND ( 'NONE', #114, .T. ) ;
#10 = EDGE_LOOP ( 'NONE', ( #191, #19, #71, #28 ) ) ;
#11 = UNCERTAINTY_MEASURE_WITH_UNIT (LENGTH_MEASURE( 1.000000000000000100E-005 ), #146, 'distance_accuracy_value', 'NONE');
#12 = APPROVAL_PERSON_ORGANIZATION ( #155, #136, #91 ) ;
#13 = PRODUCT_DEFINITION_FORMATION_WITH_SPECIFIED_SOURCE ( 'ANY', '', #169, .NOT_KNOWN. ) ;
#14 = ORIENTED_EDGE ( 'NONE', *, *, #182, .T. ) ;
#15 = CARTESIAN_POINT ( 'NONE',  ( 1.027450897999229200E-015, 6.350000000000000500, 0.3397574789489318200 ) ) ;
#16 = CARTESIAN_POINT ( 'NONE',  ( 2.498001805406600200E-016, 1.221245327087670000E-015, 0.3397574789489309900 ) ) ;
#17 = AXIS2_PLACEMENT_3D ( 'NONE', #204, #205, #56 ) ;
#18 = CALENDAR_DATE ( 2018, 13, 12 ) ;
#19 = ORIENTED_EDGE ( 'NONE', *, *, #139, .F. ) ;
#20 = CARTESIAN_POINT ( 'NONE',  ( -4.288764102214553700, -2.150350082362045200, -0.0007023408770090140000 ) ) ;
#21 = CARTESIAN_POINT ( 'NONE',  ( -4.288764102214553700, 2.150350082362037600, -0.0007023408770084718900 ) ) ;
#22 = CIRCLE ( 'NONE', #31, 6.349999999999999600 ) ;
#23 = DIRECTION ( 'NONE',  ( -2.407905525431440000E-032, -1.252017080217000000E-016, 1.000000000000000000 ) ) ;
#24 = CARTESIAN_POINT ( 'NONE',  ( -7.806255641895631900E-015, -6.425904225916082300, 0.3479525803969969500 ) ) ;
#25 = PERSON_AND_ORGANIZATION_ROLE ( 'creator' ) ;
#26 = ORGANIZATION ( 'UNSPECIFIED', 'UNSPECIFIED', '' ) ;
#27 = SECURITY_CLASSIFICATION ( '', '', #189 ) ;
#28 = ORIENTED_EDGE ( 'NONE', *, *, #109, .T. ) ;
#29 = PRODUCT_DEFINITION_SHAPE ( 'NONE', 'NONE',  #89 ) ;
#30 = ADVANCED_FACE ( 'NONE', ( #82 ), #137, .T. ) ;
#31 = AXIS2_PLACEMENT_3D ( 'NONE', #198, #214, #51 ) ;
#32 = CALENDAR_DATE ( 2018, 13, 12 ) ;
#33 = CARTESIAN_POINT ( 'NONE',  ( 4.288764102214506700, -2.150350082362045200, -0.0007023408770158986800 ) ) ;
#34 = CARTESIAN_POINT ( 'NONE',  ( 2.638508761533359200E-016, 6.425904225916074400, 0.3479525803969998900 ) ) ;
#35 = CALENDAR_DATE ( 2018, 13, 12 ) ;
#36 = CARTESIAN_POINT ( 'NONE',  ( 1.027450897999229200E-015, 6.350000000000000500, 0.3397574789489318200 ) ) ;
#37 = CARTESIAN_POINT ( 'NONE',  ( 2.498001805406599800E-016, 8.881784197001229600E-016, 3.000000000000000000 ) ) ;
#38 = VECTOR ( 'NONE', #23, 1000.000000000000000 ) ;
#39 = AXIS2_PLACEMENT_3D ( 'NONE', #58, #88, #147 ) ;
#40 = CARTESIAN_POINT ( 'NONE',  ( -6.372205542285491300, 6.425904225916074400, 0.6921213285771415900 ) ) ;
#41 = DESIGN_CONTEXT ( 'detailed design', #100, 'design' ) ;
#42 = APPLICATION_PROTOCOL_DEFINITION ( 'international standard', 'config_control_design', 1994, #183 ) ;
#43 = CARTESIAN_POINT ( 'NONE',  ( -6.422223970980500200, -2.150350082362045600, 0.2304322241068726400 ) ) ;
#44 = PERSON_AND_ORGANIZATION ( #103, #26 ) ;
#45 = APPROVAL_DATE_TIME ( #120, #95 ) ;
#46 = ORIENTED_EDGE ( 'NONE', *, *, #154, .T. ) ;
#47 = ADVANCED_BREP_SHAPE_REPRESENTATION ( '110-1117E UVFS pl-cx 12.7 F125', ( #125, #17 ), #68 ) ;
#48 = APPROVAL_PERSON_ORGANIZATION ( #113, #95, #186 ) ;
#49 = COORDINATED_UNIVERSAL_TIME_OFFSET ( 2, 0, .AHEAD. ) ;
#50 = DATE_AND_TIME ( #63, #119 ) ;
#51 = DIRECTION ( 'NONE',  ( 0.0000000000000000000, -1.000000000000000000, -1.365923996832131600E-016 ) ) ;
#52 = DIRECTION ( 'NONE',  ( 1.000000000000000000, 0.0000000000000000000, 0.0000000000000000000 ) ) ;
#53 = DIRECTION ( 'NONE',  ( 1.000000000000000000, 0.0000000000000000000, -0.0000000000000000000 ) ) ;
#54 = CARTESIAN_POINT ( 'NONE',  ( 2.129230334487676800, -6.425904225916082300, 0.3479525803969996700 ) ) ;
#55 = CC_DESIGN_APPROVAL ( #210, ( #13 ) ) ;
#56 = DIRECTION ( 'NONE',  ( 1.000000000000000000, 0.0000000000000000000, 0.0000000000000000000 ) ) ;
#57 = CARTESIAN_POINT ( 'NONE',  ( 1.027450897999229200E-015, 6.350000000000000500, 3.000000000000000900 ) ) ;
#58 = CARTESIAN_POINT ( 'NONE',  ( 2.498001805406600200E-016, 1.221245327087670000E-015, 0.3397574789489309900 ) ) ;
#59 = MECHANICAL_CONTEXT ( 'NONE', #183, 'mechanical' ) ;
#60 = APPROVAL_ROLE ( '' ) ;
#61 = ORIENTED_EDGE ( 'NONE', *, *, #122, .F. ) ;
#62 = ADVANCED_FACE ( 'NONE', ( #9 ), #67, .T. ) ;
#63 = CALENDAR_DATE ( 2018, 13, 12 ) ;
#64 = VERTEX_POINT ( 'NONE', #15 ) ;
#65 = CC_DESIGN_PERSON_AND_ORGANIZATION_ASSIGNMENT ( #80, #79, ( #13 ) ) ;
#66 = FACE_OUTER_BOUND ( 'NONE', #165, .T. ) ;
#67 = PLANE ( 'NONE',  #145 ) ;
#68 =( GEOMETRIC_REPRESENTATION_CONTEXT ( 3 ) GLOBAL_UNCERTAINTY_ASSIGNED_CONTEXT ( ( #11 ) ) GLOBAL_UNIT_ASSIGNED_CONTEXT ( ( #146, #184, #4 ) ) REPRESENTATION_CONTEXT ( 'NONE', 'WORKASPACE' ) );
#69 = CARTESIAN_POINT ( 'NONE',  ( 4.255361772677940900, 6.425904225916074400, 0.4627869169061614200 ) ) ;
#70 = DIRECTION ( 'NONE',  ( 0.0000000000000000000, -1.000000000000000000, 0.0000000000000000000 ) ) ;
#71 = ORIENTED_EDGE ( 'NONE', *, *, #132, .T. ) ;
#72 = CARTESIAN_POINT ( 'NONE',  ( 2.498001805406600200E-016, 1.221245327087670000E-015, 0.3397574789489309900 ) ) ;
#73 = AXIS2_PLACEMENT_3D ( 'NONE', #16, #111, #143 ) ;
#74 = ORIENTED_EDGE ( 'NONE', *, *, #139, .T. ) ;
#75 = APPROVAL_STATUS ( 'not_yet_approved' ) ;
#76 = CIRCLE ( 'NONE', #213, 6.349999999999999600 ) ;
#77 = CC_DESIGN_PERSON_AND_ORGANIZATION_ASSIGNMENT ( #128, #187, ( #27 ) ) ;
#78 = LOCAL_TIME ( 16, 52, 7.000000000000000000, #49 ) ;
#79 = PERSON_AND_ORGANIZATION_ROLE ( 'design_supplier' ) ;
#80 = PERSON_AND_ORGANIZATION ( #103, #26 ) ;
#81 = PERSON_AND_ORGANIZATION ( #103, #26 ) ;
#82 = FACE_OUTER_BOUND ( 'NONE', #86, .T. ) ;
#83 = DIRECTION ( 'NONE',  ( 0.0000000000000000000, -1.000000000000000000, -1.280553747030123300E-016 ) ) ;
#84 = LOCAL_TIME ( 16, 52, 7.000000000000000000, #157 ) ;
#85 = CARTESIAN_POINT ( 'NONE',  ( 2.638508761533359200E-016, -6.425904225916082300, 0.3479525803969998900 ) ) ;
#86 = EDGE_LOOP ( 'NONE', ( #158, #203, #14, #135 ) ) ;
#87 = CARTESIAN_POINT ( 'NONE',  ( 6.372205542285428200, 6.425904225916074400, 0.6921213285771300500 ) ) ;
#88 = DIRECTION ( 'NONE',  ( 2.407905525431440000E-032, 1.252017080217000000E-016, -1.000000000000000000 ) ) ;
#89 = PRODUCT_DEFINITION ( 'UNKNOWN', '', #13, #41 ) ;
#90 = DATE_AND_TIME ( #32, #84 ) ;
#91 = APPROVAL_ROLE ( '' ) ;
#92 = DATE_AND_TIME ( #35, #133 ) ;
#93 = ADVANCED_FACE ( 'NONE', ( #192 ), #144, .T. ) ;
#94 = CARTESIAN_POINT ( 'NONE',  ( 4.288764102214506700, 2.150350082362037600, -0.0007023408770153566900 ) ) ;
#95 = APPROVAL ( #75, 'UNSPECIFIED' ) ;
#96 = LINE ( 'NONE', #116, #38 ) ;
#97 = CARTESIAN_POINT ( 'NONE',  ( 2.145943661600885600, -2.150350082362045200, -0.1164380659296427500 ) ) ;
#98 = CARTESIAN_POINT ( 'NONE',  ( -7.806255641895630300E-015, 2.150350082362038100, -0.1164380659296448300 ) ) ;
#99 = DIRECTION ( 'NONE',  ( 2.407905525431440000E-032, 1.252017080217000000E-016, -1.000000000000000000 ) ) ;
#100 = APPLICATION_CONTEXT ( 'configuration controlled 3d designs of mechanical parts and assemblies' ) ;
#101 = PERSON_AND_ORGANIZATION_ROLE ( 'design_owner' ) ;
#102 = CARTESIAN_POINT ( 'NONE',  ( -6.372205542285491300, -6.425904225916082300, 0.6921213285771415900 ) ) ;
#103 = PERSON ( 'UNSPECIFIED', 'UNSPECIFIED', 'UNSPECIFIED', ('UNSPECIFIED'), ('UNSPECIFIED'), ('UNSPECIFIED') ) ;
#104 = APPROVAL_STATUS ( 'not_yet_approved' ) ;
#105 = VERTEX_POINT ( 'NONE', #196 ) ;
#106 = CIRCLE ( 'NONE', #167, 59.50999999999999800 ) ;
#107 = PERSON_AND_ORGANIZATION ( #103, #26 ) ;
#108 = VERTEX_POINT ( 'NONE', #177 ) ;
#109 = EDGE_CURVE ( 'NONE', #105, #127, #22, .T. ) ;
#110 = CARTESIAN_POINT ( 'NONE',  ( 6.422223970980434500, 2.150350082362038100, 0.2304322241068614800 ) ) ;
#111 = DIRECTION ( 'NONE',  ( -2.407905525431440000E-032, -1.252017080217000000E-016, 1.000000000000000000 ) ) ;
#112 = CARTESIAN_POINT ( 'NONE',  ( -7.806255641895630300E-015, -2.150350082362045600, -0.1164380659296453700 ) ) ;
#113 = PERSON_AND_ORGANIZATION ( #103, #26 ) ;
#114 = EDGE_LOOP ( 'NONE', ( #2, #121 ) ) ;
#115 = CARTESIAN_POINT ( 'NONE',  ( -4.255361772677986200, -6.425904225916082300, 0.4627869169061679100 ) ) ;
#116 = CARTESIAN_POINT ( 'NONE',  ( 2.498001805406600200E-016, -6.349999999999998800, 0.3397574789489302100 ) ) ;
#117 = DIRECTION ( 'NONE',  ( 2.407905525431440000E-032, 1.252017080217000000E-016, -1.000000000000000000 ) ) ;
#118 = CC_DESIGN_APPROVAL ( #95, ( #89 ) ) ;
#119 = LOCAL_TIME ( 16, 52, 7.000000000000000000, #161 ) ;
#120 = DATE_AND_TIME ( #18, #175 ) ;
#121 = ORIENTED_EDGE ( 'NONE', *, *, #182, .F. ) ;
#122 = EDGE_CURVE ( 'NONE', #108, #64, #106, .T. ) ;
#123 = SHAPE_DEFINITION_REPRESENTATION ( #29, #47 ) ;
#124 = ADVANCED_FACE ( 'NONE', ( #197 ), #163, .T. ) ;
#125 = MANIFOLD_SOLID_BREP ( 'Imported1', #181 ) ;
#126 = CC_DESIGN_DATE_AND_TIME_ASSIGNMENT ( #90, #208, ( #27 ) ) ;
#127 = VERTEX_POINT ( 'NONE', #57 ) ;
#128 = PERSON_AND_ORGANIZATION ( #103, #26 ) ;
#129 = CARTESIAN_POINT ( 'NONE',  ( 0.0000000000000000000, 13.15799999999999900, 3.000000000000000000 ) ) ;
#130 = CARTESIAN_POINT ( 'NONE',  ( -7.806255641895631900E-015, 6.425904225916074400, 0.3479525803969969500 ) ) ;
#131 = CARTESIAN_POINT ( 'NONE',  ( -6.422223970980500200, 2.150350082362038100, 0.2304322241068732000 ) ) ;
#132 = EDGE_CURVE ( 'NONE', #108, #105, #96, .T. ) ;
#133 = LOCAL_TIME ( 16, 52, 7.000000000000000000, #215 ) ;
#134 = APPROVAL_DATE_TIME ( #50, #210 ) ;
#135 = ORIENTED_EDGE ( 'NONE', *, *, #132, .F. ) ;
#136 = APPROVAL ( #206, 'UNSPECIFIED' ) ;
#137 = CYLINDRICAL_SURFACE ( 'NONE', #73, 6.349999999999999600 ) ;
#138 = CIRCLE ( 'NONE', #7, 6.349999999999999600 ) ;
#139 = EDGE_CURVE ( 'NONE', #108, #64, #188, .T. ) ;
#140 = VECTOR ( 'NONE', #170, 1000.000000000000000 ) ;
#141 = CARTESIAN_POINT ( 'NONE',  ( 6.422223970980434500, -2.150350082362045600, 0.2304322241068609300 ) ) ;
#142 = DIRECTION ( 'NONE',  ( 0.0000000000000000000, 0.0000000000000000000, 1.000000000000000000 ) ) ;
#143 = DIRECTION ( 'NONE',  ( 0.0000000000000000000, -1.000000000000000000, -1.280553747030123300E-016 ) ) ;
#144 = CYLINDRICAL_SURFACE ( 'NONE', #3, 6.349999999999999600 ) ;
#145 = AXIS2_PLACEMENT_3D ( 'NONE', #129, #142, #53 ) ;
#146 =( LENGTH_UNIT ( ) NAMED_UNIT ( * ) SI_UNIT ( .MILLI., .METRE. ) );
#147 = DIRECTION ( 'NONE',  ( 0.0000000000000000000, -1.000000000000000000, -1.280553747030123300E-016 ) ) ;
#148 = CARTESIAN_POINT ( 'NONE',  ( -2.129230334487703500, 6.425904225916074400, 0.3479525803969975600 ) ) ;
#149 = DIRECTION ( 'NONE',  ( 0.0000000000000000000, -1.000000000000000000, -1.365923996832131600E-016 ) ) ;
#150 = PERSON_AND_ORGANIZATION_ROLE ( 'creator' ) ;
#151 = DATE_TIME_ROLE ( 'creation_date' ) ;
#152 = PRODUCT_RELATED_PRODUCT_CATEGORY ( 'detail', '', ( #169 ) ) ;
#153 = EDGE_LOOP ( 'NONE', ( #46, #211 ) ) ;
#154 = EDGE_CURVE ( 'NONE', #64, #108, #138, .T. ) ;
#155 = PERSON_AND_ORGANIZATION ( #103, #26 ) ;
#156 = CC_DESIGN_APPROVAL ( #136, ( #27 ) ) ;
#157 = COORDINATED_UNIVERSAL_TIME_OFFSET ( 2, 0, .AHEAD. ) ;
#158 = ORIENTED_EDGE ( 'NONE', *, *, #154, .F. ) ;
#159 = DIRECTION ( 'NONE',  ( -2.407905525431440000E-032, -1.252017080217000000E-016, 1.000000000000000000 ) ) ;
#160 = CARTESIAN_POINT ( 'NONE',  ( 2.129230334487676800, 6.425904225916074400, 0.3479525803969996700 ) ) ;
#161 = COORDINATED_UNIVERSAL_TIME_OFFSET ( 2, 0, .AHEAD. ) ;
#162 = CARTESIAN_POINT ( 'NONE',  ( 2.145943661600885600, 2.150350082362037600, -0.1164380659296422000 ) ) ;
#163 =( BOUNDED_SURFACE ( )  B_SPLINE_SURFACE ( 3, 3, ( 
 ( #85, #54, #180, #178 ),
 ( #193, #97, #33, #141 ),
 ( #194, #162, #94, #110 ),
 ( #34, #160, #69, #87 ) ),
 .UNSPECIFIED., .F., .F., .F. ) 
 B_SPLINE_SURFACE_WITH_KNOTS ( ( 4, 4 ),
 ( 4, 4 ),
 ( 0.0000000000000000000, 1.000000000000000000 ),
 ( 0.0000000000000000000, 1.000000000000000000 ),
 .UNSPECIFIED. ) 
 GEOMETRIC_REPRESENTATION_ITEM ( )  RATIONAL_B_SPLINE_SURFACE ( (
 ( 1.000000000000000000, 0.9990297288031836400, 0.9990297288031836400, 1.000000000000000000),
 ( 0.9961020267697640000, 0.9951355376640989000, 0.9951355376640989000, 0.9961020267697640000),
 ( 0.9961020267697640000, 0.9951355376640989000, 0.9951355376640989000, 0.9961020267697640000),
 ( 1.000000000000000000, 0.9990297288031836400, 0.9990297288031836400, 1.000000000000000000) ) ) 
 REPRESENTATION_ITEM ( '' )  SURFACE ( )  );
#164 = CARTESIAN_POINT ( 'NONE',  ( 2.498001805406600200E-016, 1.221245327087670000E-015, 0.3397574789489309900 ) ) ;
#165 = EDGE_LOOP ( 'NONE', ( #61, #74 ) ) ;
#166 = CARTESIAN_POINT ( 'NONE',  ( -4.255361772677986200, 6.425904225916074400, 0.4627869169061679100 ) ) ;
#167 = AXIS2_PLACEMENT_3D ( 'NONE', #1, #52, #70 ) ;
#168 = CARTESIAN_POINT ( 'NONE',  ( -2.145943661600912700, -2.150350082362045200, -0.1164380659296448300 ) ) ;
#169 = PRODUCT ( '110-1117E UVFS pl-cx 12.7 F125', '110-1117E UVFS pl-cx 12.7 F125', '', ( #59 ) ) ;
#170 = DIRECTION ( 'NONE',  ( -2.407905525431440000E-032, -1.252017080217000000E-016, 1.000000000000000000 ) ) ;
#171 = APPROVAL_DATE_TIME ( #92, #136 ) ;
#172 = COORDINATED_UNIVERSAL_TIME_OFFSET ( 2, 0, .AHEAD. ) ;
#173 = CC_DESIGN_SECURITY_CLASSIFICATION ( #27, ( #13 ) ) ;
#174 = ADVANCED_FACE ( 'NONE', ( #66 ), #212, .T. ) ;
#175 = LOCAL_TIME ( 16, 52, 7.000000000000000000, #172 ) ;
#176 = CC_DESIGN_PERSON_AND_ORGANIZATION_ASSIGNMENT ( #201, #101, ( #169 ) ) ;
#177 = CARTESIAN_POINT ( 'NONE',  ( 2.498001805406600200E-016, -6.349999999999998800, 0.3397574789489302100 ) ) ;
#178 = CARTESIAN_POINT ( 'NONE',  ( 6.372205542285428200, -6.425904225916082300, 0.6921213285771300500 ) ) ;
#179 = DATE_AND_TIME ( #6, #78 ) ;
#180 = CARTESIAN_POINT ( 'NONE',  ( 4.255361772677940900, -6.425904225916082300, 0.4627869169061614200 ) ) ;
#181 = CLOSED_SHELL ( 'NONE', ( #124, #30, #174, #93, #62 ) ) ;
#182 = EDGE_CURVE ( 'NONE', #127, #105, #76, .T. ) ;
#183 = APPLICATION_CONTEXT ( 'configuration controlled 3d designs of mechanical parts and assemblies' ) ;
#184 =( NAMED_UNIT ( * ) PLANE_ANGLE_UNIT ( ) SI_UNIT ( $, .RADIAN. ) );
#185 = CARTESIAN_POINT ( 'NONE',  ( -2.129230334487703500, -6.425904225916082300, 0.3479525803969975600 ) ) ;
#186 = APPROVAL_ROLE ( '' ) ;
#187 = PERSON_AND_ORGANIZATION_ROLE ( 'classification_officer' ) ;
#188 = CIRCLE ( 'NONE', #39, 6.349999999999999600 ) ;
#189 = SECURITY_CLASSIFICATION_LEVEL ( 'unclassified' ) ;
#190 = LINE ( 'NONE', #36, #140 ) ;
#191 = ORIENTED_EDGE ( 'NONE', *, *, #195, .F. ) ;
#192 = FACE_OUTER_BOUND ( 'NONE', #10, .T. ) ;
#193 = CARTESIAN_POINT ( 'NONE',  ( 2.101481349081115200E-016, -2.150350082362045600, -0.1164380659296425000 ) ) ;
#194 = CARTESIAN_POINT ( 'NONE',  ( 2.101481349081115700E-016, 2.150350082362038100, -0.1164380659296419500 ) ) ;
#195 = EDGE_CURVE ( 'NONE', #64, #127, #190, .T. ) ;
#196 = CARTESIAN_POINT ( 'NONE',  ( 2.498001805406599800E-016, -6.349999999999998800, 2.999999999999999100 ) ) ;
#197 = FACE_OUTER_BOUND ( 'NONE', #153, .T. ) ;
#198 = CARTESIAN_POINT ( 'NONE',  ( 2.498001805406599800E-016, 8.881784197001229600E-016, 3.000000000000000000 ) ) ;
#199 = CC_DESIGN_DATE_AND_TIME_ASSIGNMENT ( #179, #151, ( #89 ) ) ;
#200 = DIRECTION ( 'NONE',  ( 0.0000000000000000000, -1.000000000000000000, -1.280553747030123300E-016 ) ) ;
#201 = PERSON_AND_ORGANIZATION ( #103, #26 ) ;
#202 = CARTESIAN_POINT ( 'NONE',  ( -2.145943661600912700, 2.150350082362037600, -0.1164380659296442900 ) ) ;
#203 = ORIENTED_EDGE ( 'NONE', *, *, #195, .T. ) ;
#204 = CARTESIAN_POINT ( 'NONE',  ( 0.0000000000000000000, 0.0000000000000000000, 0.0000000000000000000 ) ) ;
#205 = DIRECTION ( 'NONE',  ( 0.0000000000000000000, 0.0000000000000000000, 1.000000000000000000 ) ) ;
#206 = APPROVAL_STATUS ( 'not_yet_approved' ) ;
#207 = CC_DESIGN_PERSON_AND_ORGANIZATION_ASSIGNMENT ( #44, #25, ( #89 ) ) ;
#208 = DATE_TIME_ROLE ( 'classification_date' ) ;
#209 = APPROVAL_PERSON_ORGANIZATION ( #107, #210, #60 ) ;
#210 = APPROVAL ( #104, 'UNSPECIFIED' ) ;
#211 = ORIENTED_EDGE ( 'NONE', *, *, #122, .T. ) ;
#212 =( BOUNDED_SURFACE ( )  B_SPLINE_SURFACE ( 3, 3, ( 
 ( #102, #115, #185, #24 ),
 ( #43, #20, #168, #112 ),
 ( #131, #21, #202, #98 ),
 ( #40, #166, #148, #130 ) ),
 .UNSPECIFIED., .F., .F., .F. ) 
 B_SPLINE_SURFACE_WITH_KNOTS ( ( 4, 4 ),
 ( 4, 4 ),
 ( 0.0000000000000000000, 1.000000000000000000 ),
 ( 0.0000000000000000000, 1.000000000000000000 ),
 .UNSPECIFIED. ) 
 GEOMETRIC_REPRESENTATION_ITEM ( )  RATIONAL_B_SPLINE_SURFACE ( (
 ( 1.000000000000000000, 0.9990297288031836400, 0.9990297288031836400, 1.000000000000000000),
 ( 0.9961020267697640000, 0.9951355376640989000, 0.9951355376640989000, 0.9961020267697640000),
 ( 0.9961020267697640000, 0.9951355376640989000, 0.9951355376640989000, 0.9961020267697640000),
 ( 1.000000000000000000, 0.9990297288031836400, 0.9990297288031836400, 1.000000000000000000) ) ) 
 REPRESENTATION_ITEM ( '' )  SURFACE ( )  );
#213 = AXIS2_PLACEMENT_3D ( 'NONE', #37, #99, #149 ) ;
#214 = DIRECTION ( 'NONE',  ( 2.407905525431440000E-032, 1.252017080217000000E-016, -1.000000000000000000 ) ) ;
#215 = COORDINATED_UNIVERSAL_TIME_OFFSET ( 2, 0, .AHEAD. ) ;
ENDSEC;
END-ISO-10303-21;
