ISO-10303-21;
HEADER;
FILE_DESCRIPTION (( 'STEP AP203' ),
    '1' );
FILE_NAME ('110-1115E UVFS pl-cx 12.7 F100.STEP',
    '2018-12-13T14:52:20',
    ( '' ),
    ( '' ),
    'SwSTEP 2.0',
    'SolidWorks 2017',
    '' );
FILE_SCHEMA (( 'CONFIG_CONTROL_DESIGN' ));
ENDSEC;

DATA;
#1 = ORGANIZATION ( 'UNSPECIFIED', 'UNSPECIFIED', '' ) ;
#2 = FACE_OUTER_BOUND ( 'NONE', #121, .T. ) ;
#3 = CARTESIAN_POINT ( 'NONE',  ( -6.350812813746143700, 6.425736697338569700, 0.8650624719506796500 ) ) ;
#4 = ADVANCED_FACE ( 'NONE', ( #211 ), #71, .T. ) ;
#5 = CARTESIAN_POINT ( 'NONE',  ( -4.297505776935064900, 2.155057776388826800, -0.0009655739856408792000 ) ) ;
#6 = CARTESIAN_POINT ( 'NONE',  ( -1.908195823574487500E-014, -2.155057776388823700, -0.1460982708881027600 ) ) ;
#7 = COORDINATED_UNIVERSAL_TIME_OFFSET ( 2, 0, .AHEAD. ) ;
#8 = CARTESIAN_POINT ( 'NONE',  ( 4.297505776935069300, 2.155057776388826800, -0.0009655739856393068900 ) ) ;
#9 = UNCERTAINTY_MEASURE_WITH_UNIT (LENGTH_MEASURE( 1.000000000000000100E-005 ), #136, 'distance_accuracy_value', 'NONE');
#10 = PERSON_AND_ORGANIZATION ( #192, #1 ) ;
#11 = FACE_OUTER_BOUND ( 'NONE', #124, .T. ) ;
#12 = APPLICATION_PROTOCOL_DEFINITION ( 'international standard', 'config_control_design', 1994, #108 ) ;
#13 = CC_DESIGN_PERSON_AND_ORGANIZATION_ASSIGNMENT ( #82, #138, ( #38 ) ) ;
#14 = APPROVAL_ROLE ( '' ) ;
#15 = APPROVAL_DATE_TIME ( #64, #66 ) ;
#16 = CC_DESIGN_DATE_AND_TIME_ASSIGNMENT ( #145, #94, ( #180 ) ) ;
#17 = AXIS2_PLACEMENT_3D ( 'NONE', #205, #72, #89 ) ;
#18 = DIRECTION ( 'NONE',  ( -2.487971076746120100E-032, -1.293648048178260000E-016, 1.000000000000000000 ) ) ;
#19 = CARTESIAN_POINT ( 'NONE',  ( 6.350812813746158800, -6.425736697338566100, 0.8650624719506829800 ) ) ;
#20 = DIRECTION ( 'NONE',  ( -2.487971076746120100E-032, -1.293648048178260000E-016, 1.000000000000000000 ) ) ;
#21 = CYLINDRICAL_SURFACE ( 'NONE', #110, 6.349999999999999600 ) ;
#22 = DIRECTION ( 'NONE',  ( 0.0000000000000000000, -1.000000000000000000, 0.0000000000000000000 ) ) ;
#23 = ADVANCED_FACE ( 'NONE', ( #2 ), #83, .T. ) ;
#24 = AXIS2_PLACEMENT_3D ( 'NONE', #45, #152, #185 ) ;
#25 = CARTESIAN_POINT ( 'NONE',  ( 2.498001805406599800E-016, -6.349999999999998800, 2.999999999999999100 ) ) ;
#26 = DATE_AND_TIME ( #123, #166 ) ;
#27 = CARTESIAN_POINT ( 'NONE',  ( 2.151203554133096500, 2.155057776388826800, -0.1460982708880960400 ) ) ;
#28 = MANIFOLD_SOLID_BREP ( 'Imported1', #76 ) ;
#29 = CARTESIAN_POINT ( 'NONE',  ( -2.151203554133103200, 2.155057776388826800, -0.1460982708881001000 ) ) ;
#30 = APPROVAL_STATUS ( 'not_yet_approved' ) ;
#31 = FACE_OUTER_BOUND ( 'NONE', #53, .T. ) ;
#32 = CC_DESIGN_DATE_AND_TIME_ASSIGNMENT ( #54, #212, ( #38 ) ) ;
#33 = COORDINATED_UNIVERSAL_TIME_OFFSET ( 2, 0, .AHEAD. ) ;
#34 = PRODUCT_DEFINITION_FORMATION_WITH_SPECIFIED_SOURCE ( 'ANY', '', #140, .NOT_KNOWN. ) ;
#35 = AXIS2_PLACEMENT_3D ( 'NONE', #99, #133, #197 ) ;
#36 = VERTEX_POINT ( 'NONE', #40 ) ;
#37 = APPROVAL_DATE_TIME ( #113, #139 ) ;
#38 = PRODUCT_DEFINITION ( 'UNKNOWN', '', #34, #190 ) ;
#39 = CIRCLE ( 'NONE', #17, 6.349999999999999600 ) ;
#40 = CARTESIAN_POINT ( 'NONE',  ( 1.027450897999229200E-015, 6.350000000000000500, 3.000000000000000900 ) ) ;
#41 = CARTESIAN_POINT ( 'NONE',  ( 7.105427357601000300E-015, 1.065814103640150000E-014, 47.60999999999999900 ) ) ;
#42 = CARTESIAN_POINT ( 'NONE',  ( 1.201928244146004900E-016, -2.155057776388823700, -0.1460982708880973200 ) ) ;
#43 = CARTESIAN_POINT ( 'NONE',  ( 4.245157632753935300, -6.425736697338565200, 0.5789861049269355900 ) ) ;
#44 = ORIENTED_EDGE ( 'NONE', *, *, #155, .F. ) ;
#45 = CARTESIAN_POINT ( 'NONE',  ( 2.498001805406600200E-016, 1.221245327087670000E-015, 0.4253669082825219900 ) ) ;
#46 = CARTESIAN_POINT ( 'NONE',  ( 1.201928244146007400E-016, 2.155057776388826800, -0.1460982708880956800 ) ) ;
#47 = CARTESIAN_POINT ( 'NONE',  ( -6.350812813746143700, -6.425736697338566100, 0.8650624719506796500 ) ) ;
#48 =( NAMED_UNIT ( * ) SI_UNIT ( $, .STERADIAN. ) SOLID_ANGLE_UNIT ( ) );
#49 = CARTESIAN_POINT ( 'NONE',  ( -4.245157632753931800, 6.425736697338569700, 0.5789861049269339200 ) ) ;
#50 = APPROVAL_STATUS ( 'not_yet_approved' ) ;
#51 = APPROVAL ( #50, 'UNSPECIFIED' ) ;
#52 = EDGE_CURVE ( 'NONE', #112, #209, #181, .T. ) ;
#53 = EDGE_LOOP ( 'NONE', ( #101, #204, #157, #78 ) ) ;
#54 = DATE_AND_TIME ( #175, #159 ) ;
#55 = DIRECTION ( 'NONE',  ( -2.487971076746120100E-032, -1.293648048178260000E-016, 1.000000000000000000 ) ) ;
#56 = DIRECTION ( 'NONE',  ( 0.0000000000000000000, -1.000000000000000000, -1.280553747030123300E-016 ) ) ;
#57 = CIRCLE ( 'NONE', #142, 47.60999999999999200 ) ;
#58 = ADVANCED_FACE ( 'NONE', ( #31 ), #21, .T. ) ;
#59 = CARTESIAN_POINT ( 'NONE',  ( -1.908195823574487800E-014, 6.425736697338569700, 0.4356212770483202700 ) ) ;
#60 = CARTESIAN_POINT ( 'NONE',  ( -2.151203554133103200, -2.155057776388823700, -0.1460982708881016200 ) ) ;
#61 = CARTESIAN_POINT ( 'NONE',  ( -2.124999630355010700, -6.425736697338566100, 0.4356212770483214900 ) ) ;
#62 = ORIENTED_EDGE ( 'NONE', *, *, #174, .F. ) ;
#63 =( GEOMETRIC_REPRESENTATION_CONTEXT ( 3 ) GLOBAL_UNCERTAINTY_ASSIGNED_CONTEXT ( ( #9 ) ) GLOBAL_UNIT_ASSIGNED_CONTEXT ( ( #136, #149, #48 ) ) REPRESENTATION_CONTEXT ( 'NONE', 'WORKASPACE' ) );
#64 = DATE_AND_TIME ( #191, #196 ) ;
#65 = ORIENTED_EDGE ( 'NONE', *, *, #79, .F. ) ;
#66 = APPROVAL ( #30, 'UNSPECIFIED' ) ;
#67 = APPROVAL_PERSON_ORGANIZATION ( #84, #51, #188 ) ;
#68 = DIRECTION ( 'NONE',  ( 2.487971076746120100E-032, 1.293648048178260000E-016, -1.000000000000000000 ) ) ;
#69 = CARTESIAN_POINT ( 'NONE',  ( 6.429126340263124500, 2.155057776388826800, 0.2886384752123173900 ) ) ;
#70 = APPROVAL_PERSON_ORGANIZATION ( #114, #66, #14 ) ;
#71 = CYLINDRICAL_SURFACE ( 'NONE', #105, 6.349999999999999600 ) ;
#72 = DIRECTION ( 'NONE',  ( 2.487971076746120100E-032, 1.293648048178260000E-016, -1.000000000000000000 ) ) ;
#73 = CARTESIAN_POINT ( 'NONE',  ( -6.429126340263107600, 2.155057776388826800, 0.2886384752123140100 ) ) ;
#74 = COORDINATED_UNIVERSAL_TIME_OFFSET ( 2, 0, .AHEAD. ) ;
#75 = PERSON_AND_ORGANIZATION_ROLE ( 'design_supplier' ) ;
#76 = CLOSED_SHELL ( 'NONE', ( #131, #58, #162, #4, #23 ) ) ;
#77 = APPROVAL_STATUS ( 'not_yet_approved' ) ;
#78 = ORIENTED_EDGE ( 'NONE', *, *, #93, .F. ) ;
#79 = EDGE_CURVE ( 'NONE', #112, #36, #194, .T. ) ;
#80 = PRODUCT_DEFINITION_SHAPE ( 'NONE', 'NONE',  #38 ) ;
#81 = AXIS2_PLACEMENT_3D ( 'NONE', #183, #169, #120 ) ;
#82 = PERSON_AND_ORGANIZATION ( #192, #1 ) ;
#83 = PLANE ( 'NONE',  #35 ) ;
#84 = PERSON_AND_ORGANIZATION ( #192, #1 ) ;
#85 = CIRCLE ( 'NONE', #24, 6.349999999999999600 ) ;
#86 = CARTESIAN_POINT ( 'NONE',  ( 2.498001805406600200E-016, -6.349999999999998800, 0.4253669082825211600 ) ) ;
#87 = DIRECTION ( 'NONE',  ( 0.0000000000000000000, 0.0000000000000000000, 1.000000000000000000 ) ) ;
#88 = CC_DESIGN_PERSON_AND_ORGANIZATION_ASSIGNMENT ( #161, #187, ( #34 ) ) ;
#89 = DIRECTION ( 'NONE',  ( 0.0000000000000000000, -1.000000000000000000, -1.365923996832131600E-016 ) ) ;
#90 = CARTESIAN_POINT ( 'NONE',  ( 6.429126340263125300, -2.155057776388823700, 0.2886384752123157800 ) ) ;
#91 = MECHANICAL_CONTEXT ( 'NONE', #168, 'mechanical' ) ;
#92 = APPROVAL_ROLE ( '' ) ;
#93 = EDGE_CURVE ( 'NONE', #209, #154, #97, .T. ) ;
#94 = DATE_TIME_ROLE ( 'classification_date' ) ;
#95 = VECTOR ( 'NONE', #55, 1000.000000000000000 ) ;
#96 = SECURITY_CLASSIFICATION_LEVEL ( 'unclassified' ) ;
#97 = LINE ( 'NONE', #100, #128 ) ;
#98 = CC_DESIGN_APPROVAL ( #139, ( #180 ) ) ;
#99 = CARTESIAN_POINT ( 'NONE',  ( 0.0000000000000000000, 13.15799999999999900, 3.000000000000000000 ) ) ;
#100 = CARTESIAN_POINT ( 'NONE',  ( 2.498001805406600200E-016, -6.349999999999998800, 0.4253669082825211600 ) ) ;
#101 = ORIENTED_EDGE ( 'NONE', *, *, #52, .F. ) ;
#102 = CARTESIAN_POINT ( 'NONE',  ( 4.245157632753935300, 6.425736697338568800, 0.5789861049269355900 ) ) ;
#103 = DIRECTION ( 'NONE',  ( 1.000000000000000000, 0.0000000000000000000, 0.0000000000000000000 ) ) ;
#104 = CARTESIAN_POINT ( 'NONE',  ( -4.297505776935064900, -2.155057776388823700, -0.0009655739856423968600 ) ) ;
#105 = AXIS2_PLACEMENT_3D ( 'NONE', #179, #117, #56 ) ;
#106 = PERSON_AND_ORGANIZATION ( #192, #1 ) ;
#107 = ORIENTED_EDGE ( 'NONE', *, *, #129, .T. ) ;
#108 = APPLICATION_CONTEXT ( 'configuration controlled 3d designs of mechanical parts and assemblies' ) ;
#109 = COORDINATED_UNIVERSAL_TIME_OFFSET ( 2, 0, .AHEAD. ) ;
#110 = AXIS2_PLACEMENT_3D ( 'NONE', #160, #18, #199 ) ;
#111 = CIRCLE ( 'NONE', #81, 6.349999999999999600 ) ;
#112 = VERTEX_POINT ( 'NONE', #215 ) ;
#113 = DATE_AND_TIME ( #208, #189 ) ;
#114 = PERSON_AND_ORGANIZATION ( #192, #1 ) ;
#115 = CARTESIAN_POINT ( 'NONE',  ( 2.124999630355003600, -6.425736697338565200, 0.4356212770483254800 ) ) ;
#116 = ORIENTED_EDGE ( 'NONE', *, *, #184, .F. ) ;
#117 = DIRECTION ( 'NONE',  ( -2.487971076746120100E-032, -1.293648048178260000E-016, 1.000000000000000000 ) ) ;
#118 = PRODUCT_RELATED_PRODUCT_CATEGORY ( 'detail', '', ( #140 ) ) ;
#119 = DIRECTION ( 'NONE',  ( 1.000000000000000000, 0.0000000000000000000, -3.084289765114799800E-016 ) ) ;
#120 = DIRECTION ( 'NONE',  ( 0.0000000000000000000, -1.000000000000000000, -1.365923996832131600E-016 ) ) ;
#121 = EDGE_LOOP ( 'NONE', ( #116, #62 ) ) ;
#122 = CC_DESIGN_SECURITY_CLASSIFICATION ( #180, ( #34 ) ) ;
#123 = CALENDAR_DATE ( 2018, 13, 12 ) ;
#124 = EDGE_LOOP ( 'NONE', ( #146, #107 ) ) ;
#125 = PERSON_AND_ORGANIZATION_ROLE ( 'classification_officer' ) ;
#126 = PERSON_AND_ORGANIZATION ( #192, #1 ) ;
#127 = LOCAL_TIME ( 16, 52, 20.00000000000000000, #109 ) ;
#128 = VECTOR ( 'NONE', #20, 1000.000000000000000 ) ;
#129 = EDGE_CURVE ( 'NONE', #209, #112, #57, .T. ) ;
#130 =( BOUNDED_SURFACE ( )  B_SPLINE_SURFACE ( 3, 3, ( 
 ( #47, #153, #61, #206 ),
 ( #171, #104, #60, #6 ),
 ( #73, #5, #29, #151 ),
 ( #3, #49, #137, #59 ) ),
 .UNSPECIFIED., .F., .F., .F. ) 
 B_SPLINE_SURFACE_WITH_KNOTS ( ( 4, 4 ),
 ( 4, 4 ),
 ( 0.0000000000000000000, 1.000000000000000000 ),
 ( 0.0000000000000000000, 1.000000000000000000 ),
 .UNSPECIFIED. ) 
 GEOMETRIC_REPRESENTATION_ITEM ( )  RATIONAL_B_SPLINE_SURFACE ( (
 ( 1.000000000000000000, 0.9984810576319141900, 0.9984810576319141900, 1.000000000000000000),
 ( 0.9939001431485217100, 0.9923904661114468800, 0.9923904661114468800, 0.9939001431485217100),
 ( 0.9939001431485217100, 0.9923904661114468800, 0.9923904661114468800, 0.9939001431485217100),
 ( 1.000000000000000000, 0.9984810576319141900, 0.9984810576319141900, 1.000000000000000000) ) ) 
 REPRESENTATION_ITEM ( '' )  SURFACE ( )  );
#131 = ADVANCED_FACE ( 'NONE', ( #11 ), #198, .T. ) ;
#132 = EDGE_LOOP ( 'NONE', ( #213, #173 ) ) ;
#133 = DIRECTION ( 'NONE',  ( 0.0000000000000000000, 0.0000000000000000000, 1.000000000000000000 ) ) ;
#134 = CARTESIAN_POINT ( 'NONE',  ( 2.052803341149510100E-016, 6.425736697338569700, 0.4356212770483258700 ) ) ;
#135 = CARTESIAN_POINT ( 'NONE',  ( 2.124999630355003600, 6.425736697338568800, 0.4356212770483254800 ) ) ;
#136 =( LENGTH_UNIT ( ) NAMED_UNIT ( * ) SI_UNIT ( .MILLI., .METRE. ) );
#137 = CARTESIAN_POINT ( 'NONE',  ( -2.124999630355010700, 6.425736697338569700, 0.4356212770483214900 ) ) ;
#138 = PERSON_AND_ORGANIZATION_ROLE ( 'creator' ) ;
#139 = APPROVAL ( #77, 'UNSPECIFIED' ) ;
#140 = PRODUCT ( '110-1115E UVFS pl-cx 12.7 F100', '110-1115E UVFS pl-cx 12.7 F100', '', ( #91 ) ) ;
#141 = FACE_OUTER_BOUND ( 'NONE', #132, .T. ) ;
#142 = AXIS2_PLACEMENT_3D ( 'NONE', #41, #119, #22 ) ;
#143 = CARTESIAN_POINT ( 'NONE',  ( 1.027450897999229200E-015, 6.350000000000000500, 0.4253669082825228300 ) ) ;
#144 = CARTESIAN_POINT ( 'NONE',  ( 4.297505776935071100, -2.155057776388823700, -0.0009655739856409334100 ) ) ;
#145 = DATE_AND_TIME ( #210, #127 ) ;
#146 = ORIENTED_EDGE ( 'NONE', *, *, #52, .T. ) ;
#147 = CARTESIAN_POINT ( 'NONE',  ( 2.151203554133096500, -2.155057776388823700, -0.1460982708880976000 ) ) ;
#148 = CARTESIAN_POINT ( 'NONE',  ( 2.498001805406600200E-016, 1.221245327087670000E-015, 0.4253669082825219900 ) ) ;
#149 =( NAMED_UNIT ( * ) PLANE_ANGLE_UNIT ( ) SI_UNIT ( $, .RADIAN. ) );
#150 = PERSON_AND_ORGANIZATION ( #192, #1 ) ;
#151 = CARTESIAN_POINT ( 'NONE',  ( -1.908195823574487500E-014, 2.155057776388826800, -0.1460982708881012900 ) ) ;
#152 = DIRECTION ( 'NONE',  ( 2.487971076746120100E-032, 1.293648048178260000E-016, -1.000000000000000000 ) ) ;
#153 = CARTESIAN_POINT ( 'NONE',  ( -4.245157632753931800, -6.425736697338566100, 0.5789861049269339200 ) ) ;
#154 = VERTEX_POINT ( 'NONE', #25 ) ;
#155 = EDGE_CURVE ( 'NONE', #209, #112, #85, .T. ) ;
#156 = APPROVAL_DATE_TIME ( #26, #51 ) ;
#157 = ORIENTED_EDGE ( 'NONE', *, *, #174, .T. ) ;
#158 = CC_DESIGN_PERSON_AND_ORGANIZATION_ASSIGNMENT ( #150, #75, ( #34 ) ) ;
#159 = LOCAL_TIME ( 16, 52, 20.00000000000000000, #7 ) ;
#160 = CARTESIAN_POINT ( 'NONE',  ( 2.498001805406600200E-016, 1.221245327087670000E-015, 0.4253669082825219900 ) ) ;
#161 = PERSON_AND_ORGANIZATION ( #192, #1 ) ;
#162 = ADVANCED_FACE ( 'NONE', ( #141 ), #130, .T. ) ;
#163 = CARTESIAN_POINT ( 'NONE',  ( 2.052803341149510100E-016, -6.425736697338566100, 0.4356212770483258700 ) ) ;
#164 = APPROVAL_PERSON_ORGANIZATION ( #126, #139, #92 ) ;
#165 = AXIS2_PLACEMENT_3D ( 'NONE', #148, #68, #201 ) ;
#166 = LOCAL_TIME ( 16, 52, 20.00000000000000000, #178 ) ;
#167 = ORIENTED_EDGE ( 'NONE', *, *, #184, .T. ) ;
#168 = APPLICATION_CONTEXT ( 'configuration controlled 3d designs of mechanical parts and assemblies' ) ;
#169 = DIRECTION ( 'NONE',  ( 2.487971076746120100E-032, 1.293648048178260000E-016, -1.000000000000000000 ) ) ;
#170 = ADVANCED_BREP_SHAPE_REPRESENTATION ( '110-1115E UVFS pl-cx 12.7 F100', ( #28, #177 ), #63 ) ;
#171 = CARTESIAN_POINT ( 'NONE',  ( -6.429126340263107600, -2.155057776388823700, 0.2886384752123125100 ) ) ;
#172 = CC_DESIGN_APPROVAL ( #66, ( #34 ) ) ;
#173 = ORIENTED_EDGE ( 'NONE', *, *, #155, .T. ) ;
#174 = EDGE_CURVE ( 'NONE', #36, #154, #111, .T. ) ;
#175 = CALENDAR_DATE ( 2018, 13, 12 ) ;
#176 = EDGE_LOOP ( 'NONE', ( #65, #44, #200, #167 ) ) ;
#177 = AXIS2_PLACEMENT_3D ( 'NONE', #182, #87, #103 ) ;
#178 = COORDINATED_UNIVERSAL_TIME_OFFSET ( 2, 0, .AHEAD. ) ;
#179 = CARTESIAN_POINT ( 'NONE',  ( 2.498001805406600200E-016, 1.221245327087670000E-015, 0.4253669082825219900 ) ) ;
#180 = SECURITY_CLASSIFICATION ( '', '', #96 ) ;
#181 = CIRCLE ( 'NONE', #165, 6.349999999999999600 ) ;
#182 = CARTESIAN_POINT ( 'NONE',  ( 0.0000000000000000000, 0.0000000000000000000, 0.0000000000000000000 ) ) ;
#183 = CARTESIAN_POINT ( 'NONE',  ( 2.498001805406599800E-016, 8.881784197001225700E-016, 3.000000000000000000 ) ) ;
#184 = EDGE_CURVE ( 'NONE', #154, #36, #39, .T. ) ;
#185 = DIRECTION ( 'NONE',  ( 0.0000000000000000000, -1.000000000000000000, -1.280553747030123300E-016 ) ) ;
#186 = APPLICATION_PROTOCOL_DEFINITION ( 'international standard', 'config_control_design', 1994, #168 ) ;
#187 = PERSON_AND_ORGANIZATION_ROLE ( 'creator' ) ;
#188 = APPROVAL_ROLE ( '' ) ;
#189 = LOCAL_TIME ( 16, 52, 20.00000000000000000, #74 ) ;
#190 = DESIGN_CONTEXT ( 'detailed design', #108, 'design' ) ;
#191 = CALENDAR_DATE ( 2018, 13, 12 ) ;
#192 = PERSON ( 'UNSPECIFIED', 'UNSPECIFIED', 'UNSPECIFIED', ('UNSPECIFIED'), ('UNSPECIFIED'), ('UNSPECIFIED') ) ;
#193 = SHAPE_DEFINITION_REPRESENTATION ( #80, #170 ) ;
#194 = LINE ( 'NONE', #143, #95 ) ;
#195 = CC_DESIGN_PERSON_AND_ORGANIZATION_ASSIGNMENT ( #10, #125, ( #180 ) ) ;
#196 = LOCAL_TIME ( 16, 52, 20.00000000000000000, #33 ) ;
#197 = DIRECTION ( 'NONE',  ( 1.000000000000000000, 0.0000000000000000000, -0.0000000000000000000 ) ) ;
#198 =( BOUNDED_SURFACE ( )  B_SPLINE_SURFACE ( 3, 3, ( 
 ( #163, #115, #43, #19 ),
 ( #42, #147, #144, #90 ),
 ( #46, #27, #8, #69 ),
 ( #134, #135, #102, #202 ) ),
 .UNSPECIFIED., .F., .F., .F. ) 
 B_SPLINE_SURFACE_WITH_KNOTS ( ( 4, 4 ),
 ( 4, 4 ),
 ( 0.0000000000000000000, 1.000000000000000000 ),
 ( 0.0000000000000000000, 1.000000000000000000 ),
 .UNSPECIFIED. ) 
 GEOMETRIC_REPRESENTATION_ITEM ( )  RATIONAL_B_SPLINE_SURFACE ( (
 ( 1.000000000000000000, 0.9984810576319139700, 0.9984810576319139700, 1.000000000000000000),
 ( 0.9939001431485217100, 0.9923904661114466600, 0.9923904661114466600, 0.9939001431485217100),
 ( 0.9939001431485217100, 0.9923904661114466600, 0.9923904661114466600, 0.9939001431485217100),
 ( 1.000000000000000000, 0.9984810576319139700, 0.9984810576319139700, 1.000000000000000000) ) ) 
 REPRESENTATION_ITEM ( '' )  SURFACE ( )  );
#199 = DIRECTION ( 'NONE',  ( 0.0000000000000000000, -1.000000000000000000, -1.280553747030123300E-016 ) ) ;
#200 = ORIENTED_EDGE ( 'NONE', *, *, #93, .T. ) ;
#201 = DIRECTION ( 'NONE',  ( 0.0000000000000000000, -1.000000000000000000, -1.280553747030123300E-016 ) ) ;
#202 = CARTESIAN_POINT ( 'NONE',  ( 6.350812813746158800, 6.425736697338569700, 0.8650624719506829800 ) ) ;
#203 = CC_DESIGN_PERSON_AND_ORGANIZATION_ASSIGNMENT ( #106, #207, ( #140 ) ) ;
#204 = ORIENTED_EDGE ( 'NONE', *, *, #79, .T. ) ;
#205 = CARTESIAN_POINT ( 'NONE',  ( 2.498001805406599800E-016, 8.881784197001225700E-016, 3.000000000000000000 ) ) ;
#206 = CARTESIAN_POINT ( 'NONE',  ( -1.908195823574487800E-014, -6.425736697338566100, 0.4356212770483202700 ) ) ;
#207 = PERSON_AND_ORGANIZATION_ROLE ( 'design_owner' ) ;
#208 = CALENDAR_DATE ( 2018, 13, 12 ) ;
#209 = VERTEX_POINT ( 'NONE', #86 ) ;
#210 = CALENDAR_DATE ( 2018, 13, 12 ) ;
#211 = FACE_OUTER_BOUND ( 'NONE', #176, .T. ) ;
#212 = DATE_TIME_ROLE ( 'creation_date' ) ;
#213 = ORIENTED_EDGE ( 'NONE', *, *, #129, .F. ) ;
#214 = CC_DESIGN_APPROVAL ( #51, ( #38 ) ) ;
#215 = CARTESIAN_POINT ( 'NONE',  ( 1.027450897999229200E-015, 6.350000000000000500, 0.4253669082825228300 ) ) ;
ENDSEC;
END-ISO-10303-21;
