ISO-10303-21;
HEADER;
FILE_DESCRIPTION (( 'STEP AP203' ),
    '1' );
FILE_NAME ('110-1112E UVFS pl-cx 12.7 F80.STEP',
    '2018-12-13T14:52:46',
    ( '' ),
    ( '' ),
    'SwSTEP 2.0',
    'SolidWorks 2017',
    '' );
FILE_SCHEMA (( 'CONFIG_CONTROL_DESIGN' ));
ENDSEC;

DATA;
#1 = EDGE_CURVE ( 'NONE', #144, #187, #117, .T. ) ;
#2 = LOCAL_TIME ( 16, 52, 46.00000000000000000, #140 ) ;
#3 = ORIENTED_EDGE ( 'NONE', *, *, #28, .T. ) ;
#4 = CARTESIAN_POINT ( 'NONE',  ( -2.152220786133614000, 2.162485026013585300, -0.1837132306652301800 ) ) ;
#5 = COORDINATED_UNIVERSAL_TIME_OFFSET ( 2, 0, .AHEAD. ) ;
#6 = CARTESIAN_POINT ( 'NONE',  ( -4.336808689942017700E-015, -2.162485026013591000, -0.1837132306652357300 ) ) ;
#7 = DIRECTION ( 'NONE',  ( -0.0000000000000000000, -0.0000000000000000000, -1.000000000000000000 ) ) ;
#8 = APPLICATION_CONTEXT ( 'configuration controlled 3d designs of mechanical parts and assemblies' ) ;
#9 = ORIENTED_EDGE ( 'NONE', *, *, #133, .F. ) ;
#10 = PRODUCT_DEFINITION_SHAPE ( 'NONE', 'NONE',  #58 ) ;
#11 = APPROVAL_ROLE ( '' ) ;
#12 = APPLICATION_CONTEXT ( 'configuration controlled 3d designs of mechanical parts and assemblies' ) ;
#13 = LOCAL_TIME ( 16, 52, 46.00000000000000000, #216 ) ;
#14 = EDGE_LOOP ( 'NONE', ( #97, #141, #202 ) ) ;
#15 = AXIS2_PLACEMENT_3D ( 'NONE', #57, #75, #185 ) ;
#16 = EDGE_CURVE ( 'NONE', #35, #192, #234, .T. ) ;
#17 = CARTESIAN_POINT ( 'NONE',  ( 2.498001805406600200E-016, 1.221245327087670000E-015, 0.5330352664116370100 ) ) ;
#18 =( BOUNDED_SURFACE ( )  B_SPLINE_SURFACE ( 3, 3, ( 
 ( #24, #175, #66, #102 ),
 ( #227, #43, #222, #121 ),
 ( #163, #85, #212, #31 ),
 ( #165, #108, #146, #105 ) ),
 .UNSPECIFIED., .F., .F., .F. ) 
 B_SPLINE_SURFACE_WITH_KNOTS ( ( 4, 4 ),
 ( 4, 4 ),
 ( 0.0000000000000000000, 1.000000000000000000 ),
 ( 0.0000000000000000000, 1.000000000000000000 ),
 .UNSPECIFIED. ) 
 GEOMETRIC_REPRESENTATION_ITEM ( )  RATIONAL_B_SPLINE_SURFACE ( (
 ( 1.000000000000000000, 0.9976354509754061800, 0.9976354509754061800, 1.000000000000000000),
 ( 0.9904458905564073000, 0.9881039326919791600, 0.9881039326919791600, 0.9904458905564073000),
 ( 0.9904458905564073000, 0.9881039326919791600, 0.9881039326919791600, 0.9904458905564073000),
 ( 1.000000000000000000, 0.9976354509754061800, 0.9976354509754061800, 1.000000000000000000) ) ) 
 REPRESENTATION_ITEM ( '' )  SURFACE ( )  );
#19 = CARTESIAN_POINT ( 'NONE',  ( -2.602085213965210600E-015, -6.425473222214775700, 0.5458740430596640300 ) ) ;
#20 = EDGE_LOOP ( 'NONE', ( #215, #81, #128, #69, #151 ) ) ;
#21 = PERSON ( 'UNSPECIFIED', 'UNSPECIFIED', 'UNSPECIFIED', ('UNSPECIFIED'), ('UNSPECIFIED'), ('UNSPECIFIED') ) ;
#22 = DIRECTION ( 'NONE',  ( -0.0000000000000000000, -0.0000000000000000000, -1.000000000000000000 ) ) ;
#23 = DESIGN_CONTEXT ( 'detailed design', #8, 'design' ) ;
#24 = CARTESIAN_POINT ( 'NONE',  ( 4.169147636853054700E-015, -6.425473222214774800, 0.5458740430596618100 ) ) ;
#25 = DIRECTION ( 'NONE',  ( 0.0000000000000000000, 0.0000000000000000000, 1.000000000000000000 ) ) ;
#26 = APPROVAL_PERSON_ORGANIZATION ( #162, #71, #50 ) ;
#27 = LINE ( 'NONE', #98, #135 ) ;
#28 = EDGE_CURVE ( 'NONE', #180, #187, #184, .T. ) ;
#29 = SECURITY_CLASSIFICATION_LEVEL ( 'unclassified' ) ;
#30 = PERSON_AND_ORGANIZATION_ROLE ( 'creator' ) ;
#31 = CARTESIAN_POINT ( 'NONE',  ( 6.418548771387337500, 2.162485026013588400, 0.3583242337088779500 ) ) ;
#32 = AXIS2_PLACEMENT_3D ( 'NONE', #205, #92, #96 ) ;
#33 = APPROVAL_DATE_TIME ( #200, #152 ) ;
#34 = ADVANCED_BREP_SHAPE_REPRESENTATION ( '110-1112E UVFS pl-cx 12.7 F80', ( #182, #113 ), #232 ) ;
#35 = VERTEX_POINT ( 'NONE', #220 ) ;
#36 = LINE ( 'NONE', #62, #217 ) ;
#37 = DATE_AND_TIME ( #233, #2 ) ;
#38 = CIRCLE ( 'NONE', #183, 6.349999999999999600 ) ;
#39 = DIRECTION ( 'NONE',  ( 0.0000000000000000000, 0.0000000000000000000, 1.000000000000000000 ) ) ;
#40 = DIRECTION ( 'NONE',  ( 3.814462587008672300E-016, -1.000000000000000000, -7.286840539676794600E-016 ) ) ;
#41 = ADVANCED_FACE ( 'NONE', ( #112 ), #176, .T. ) ;
#42 = CYLINDRICAL_SURFACE ( 'NONE', #47, 6.349999999999999600 ) ;
#43 = CARTESIAN_POINT ( 'NONE',  ( 2.152220786133602500, -2.162485026013590200, -0.1837132306652370400 ) ) ;
#44 = CARTESIAN_POINT ( 'NONE',  ( -2.111194380194221700, 6.425473222214767700, 0.5458740430596701300 ) ) ;
#45 = PERSON_AND_ORGANIZATION ( #21, #191 ) ;
#46 = CARTESIAN_POINT ( 'NONE',  ( 2.498001805406600200E-016, 1.221245327087670000E-015, 0.5330352664116370100 ) ) ;
#47 = AXIS2_PLACEMENT_3D ( 'NONE', #189, #25, #226 ) ;
#48 = DIRECTION ( 'NONE',  ( 1.000000000000000000, 0.0000000000000000000, -0.0000000000000000000 ) ) ;
#49 = APPROVAL_STATUS ( 'not_yet_approved' ) ;
#50 = APPROVAL_ROLE ( '' ) ;
#51 = CLOSED_SHELL ( 'NONE', ( #188, #171, #61, #41, #134 ) ) ;
#52 = CARTESIAN_POINT ( 'NONE',  ( 0.0000000000000000000, 0.0000000000000000000, 0.0000000000000000000 ) ) ;
#53 = PERSON_AND_ORGANIZATION ( #21, #191 ) ;
#54 = PRODUCT_DEFINITION_FORMATION_WITH_SPECIFIED_SOURCE ( 'ANY', '', #63, .NOT_KNOWN. ) ;
#55 = FACE_OUTER_BOUND ( 'NONE', #20, .T. ) ;
#56 = CALENDAR_DATE ( 2018, 13, 12 ) ;
#57 = CARTESIAN_POINT ( 'NONE',  ( 2.498001805406600200E-016, 1.221245327087670000E-015, 0.5330352664116370100 ) ) ;
#58 = PRODUCT_DEFINITION ( 'UNKNOWN', '', #54, #23 ) ;
#59 = CALENDAR_DATE ( 2018, 13, 12 ) ;
#60 = VERTEX_POINT ( 'NONE', #206 ) ;
#61 = ADVANCED_FACE ( 'NONE', ( #229 ), #104, .T. ) ;
#62 = CARTESIAN_POINT ( 'NONE',  ( 6.349999999999999600, 1.221245327087670000E-015, 0.5330352664116370100 ) ) ;
#63 = PRODUCT ( '110-1112E UVFS pl-cx 12.7 F80', '110-1112E UVFS pl-cx 12.7 F80', '', ( #126 ) ) ;
#64 = CARTESIAN_POINT ( 'NONE',  ( -2.152220786133611800, -2.162485026013592400, -0.1837132306652360700 ) ) ;
#65 = CARTESIAN_POINT ( 'NONE',  ( -6.418548771387364100, 2.162485026013582600, 0.3583242337088789500 ) ) ;
#66 = CARTESIAN_POINT ( 'NONE',  ( 4.214900726469789300, -6.425473222214773900, 0.7235291009765121300 ) ) ;
#67 = CARTESIAN_POINT ( 'NONE',  ( -9.540979117872439000E-015, 6.425473222214768600, 0.5458740430596703600 ) ) ;
#68 = PERSON_AND_ORGANIZATION_ROLE ( 'design_supplier' ) ;
#69 = ORIENTED_EDGE ( 'NONE', *, *, #149, .F. ) ;
#70 = SECURITY_CLASSIFICATION ( '', '', #29 ) ;
#71 = APPROVAL ( #143, 'UNSPECIFIED' ) ;
#72 = DATE_AND_TIME ( #59, #13 ) ;
#73 = DIRECTION ( 'NONE',  ( 1.000000000000000000, 0.0000000000000000000, 0.0000000000000000000 ) ) ;
#74 = CIRCLE ( 'NONE', #110, 6.349999999999999600 ) ;
#75 = DIRECTION ( 'NONE',  ( -0.0000000000000000000, -0.0000000000000000000, -1.000000000000000000 ) ) ;
#76 = CC_DESIGN_PERSON_AND_ORGANIZATION_ASSIGNMENT ( #204, #194, ( #70 ) ) ;
#77 = DIRECTION ( 'NONE',  ( -0.0000000000000000000, -0.0000000000000000000, -1.000000000000000000 ) ) ;
#78 = CARTESIAN_POINT ( 'NONE',  ( 2.498001805406600200E-016, 1.221245327087670000E-015, 3.500000000000000000 ) ) ;
#79 = CARTESIAN_POINT ( 'NONE',  ( 2.498001805406600200E-016, 1.221245327087670000E-015, 0.5330352664116370100 ) ) ;
#80 = DIRECTION ( 'NONE',  ( 0.0000000000000000000, 0.0000000000000000000, 1.000000000000000000 ) ) ;
#81 = ORIENTED_EDGE ( 'NONE', *, *, #133, .T. ) ;
#82 = EDGE_CURVE ( 'NONE', #192, #35, #86, .T. ) ;
#83 = DATE_TIME_ROLE ( 'classification_date' ) ;
#84 = APPLICATION_PROTOCOL_DEFINITION ( 'international standard', 'config_control_design', 1994, #8 ) ;
#85 = CARTESIAN_POINT ( 'NONE',  ( 2.152220786133600700, 2.162485026013587500, -0.1837132306652311000 ) ) ;
#86 = CIRCLE ( 'NONE', #170, 6.349999999999999600 ) ;
#87 = PERSON_AND_ORGANIZATION_ROLE ( 'design_owner' ) ;
#88 = ORIENTED_EDGE ( 'NONE', *, *, #93, .T. ) ;
#89 = APPROVAL ( #198, 'UNSPECIFIED' ) ;
#90 = UNCERTAINTY_MEASURE_WITH_UNIT (LENGTH_MEASURE( 1.000000000000000100E-005 ), #125, 'distance_accuracy_value', 'NONE');
#91 = EDGE_LOOP ( 'NONE', ( #166, #132 ) ) ;
#92 = DIRECTION ( 'NONE',  ( -0.0000000000000000000, -0.0000000000000000000, -1.000000000000000000 ) ) ;
#93 = EDGE_CURVE ( 'NONE', #144, #180, #38, .T. ) ;
#94 = APPROVAL_PERSON_ORGANIZATION ( #123, #152, #199 ) ;
#95 = ORIENTED_EDGE ( 'NONE', *, *, #82, .T. ) ;
#96 = DIRECTION ( 'NONE',  ( 1.000000000000000000, 0.0000000000000000000, 0.0000000000000000000 ) ) ;
#97 = ORIENTED_EDGE ( 'NONE', *, *, #107, .T. ) ;
#98 = CARTESIAN_POINT ( 'NONE',  ( -6.349999999999999600, 1.998896044546239400E-015, 0.5330352664116370100 ) ) ;
#99 = AXIS2_PLACEMENT_3D ( 'NONE', #100, #119, #48 ) ;
#100 = CARTESIAN_POINT ( 'NONE',  ( 0.0000000000000000000, 13.15799999999999900, 3.500000000000000000 ) ) ;
#101 = PERSON_AND_ORGANIZATION ( #21, #191 ) ;
#102 = CARTESIAN_POINT ( 'NONE',  ( 6.296196088459392800, -6.425473222214773000, 1.077578994528475300 ) ) ;
#103 = DIRECTION ( 'NONE',  ( 1.000000000000000000, 0.0000000000000000000, 0.0000000000000000000 ) ) ;
#104 =( BOUNDED_SURFACE ( )  B_SPLINE_SURFACE ( 3, 3, ( 
 ( #116, #169, #221, #19 ),
 ( #225, #118, #64, #6 ),
 ( #65, #138, #4, #136 ),
 ( #159, #142, #44, #67 ) ),
 .UNSPECIFIED., .F., .F., .F. ) 
 B_SPLINE_SURFACE_WITH_KNOTS ( ( 4, 4 ),
 ( 4, 4 ),
 ( 0.0000000000000000000, 1.000000000000000000 ),
 ( 0.0000000000000000000, 1.000000000000000000 ),
 .UNSPECIFIED. ) 
 GEOMETRIC_REPRESENTATION_ITEM ( )  RATIONAL_B_SPLINE_SURFACE ( (
 ( 1.000000000000000000, 0.9976354509754061800, 0.9976354509754061800, 1.000000000000000000),
 ( 0.9904458905564073000, 0.9881039326919791600, 0.9881039326919791600, 0.9904458905564073000),
 ( 0.9904458905564073000, 0.9881039326919791600, 0.9881039326919791600, 0.9904458905564073000),
 ( 1.000000000000000000, 0.9976354509754061800, 0.9976354509754061800, 1.000000000000000000) ) ) 
 REPRESENTATION_ITEM ( '' )  SURFACE ( )  );
#105 = CARTESIAN_POINT ( 'NONE',  ( 6.296196088459387500, 6.425473222214771200, 1.077578994528482200 ) ) ;
#106 = APPROVAL_DATE_TIME ( #147, #71 ) ;
#107 = EDGE_CURVE ( 'NONE', #60, #144, #208, .T. ) ;
#108 = CARTESIAN_POINT ( 'NONE',  ( 2.111194380194203900, 6.425473222214770400, 0.5458740430596693600 ) ) ;
#109 = LOCAL_TIME ( 16, 52, 46.00000000000000000, #114 ) ;
#110 = AXIS2_PLACEMENT_3D ( 'NONE', #46, #77, #122 ) ;
#111 = COORDINATED_UNIVERSAL_TIME_OFFSET ( 2, 0, .AHEAD. ) ;
#112 = FACE_OUTER_BOUND ( 'NONE', #197, .T. ) ;
#113 = AXIS2_PLACEMENT_3D ( 'NONE', #52, #145, #231 ) ;
#114 = COORDINATED_UNIVERSAL_TIME_OFFSET ( 2, 0, .AHEAD. ) ;
#115 = CARTESIAN_POINT ( 'NONE',  ( -1.065814103640150000E-014, -7.105427357601000300E-015, 38.09000000000000300 ) ) ;
#116 = CARTESIAN_POINT ( 'NONE',  ( -6.296196088459413300, -6.425473222214778300, 1.077578994528476200 ) ) ;
#117 = CIRCLE ( 'NONE', #155, 38.09000000000000300 ) ;
#118 = CARTESIAN_POINT ( 'NONE',  ( -4.296808024926375100, -2.162485026013593300, -0.002605838566533629100 ) ) ;
#119 = DIRECTION ( 'NONE',  ( 0.0000000000000000000, 0.0000000000000000000, 1.000000000000000000 ) ) ;
#120 = CARTESIAN_POINT ( 'NONE',  ( -6.349999999999999600, 1.998896044546239400E-015, 0.5330352664116370100 ) ) ;
#121 = CARTESIAN_POINT ( 'NONE',  ( 6.418548771387340100, -2.162485026013588400, 0.3583242337088720600 ) ) ;
#122 = DIRECTION ( 'NONE',  ( 1.000000000000000000, 8.881784197001252300E-016, 0.0000000000000000000 ) ) ;
#123 = PERSON_AND_ORGANIZATION ( #21, #191 ) ;
#124 = CC_DESIGN_PERSON_AND_ORGANIZATION_ASSIGNMENT ( #153, #68, ( #54 ) ) ;
#125 =( LENGTH_UNIT ( ) NAMED_UNIT ( * ) SI_UNIT ( .MILLI., .METRE. ) );
#126 = MECHANICAL_CONTEXT ( 'NONE', #12, 'mechanical' ) ;
#127 =( NAMED_UNIT ( * ) PLANE_ANGLE_UNIT ( ) SI_UNIT ( $, .RADIAN. ) );
#128 = ORIENTED_EDGE ( 'NONE', *, *, #16, .T. ) ;
#129 = DATE_TIME_ROLE ( 'creation_date' ) ;
#130 = ORIENTED_EDGE ( 'NONE', *, *, #93, .F. ) ;
#131 = EDGE_CURVE ( 'NONE', #187, #60, #74, .T. ) ;
#132 = ORIENTED_EDGE ( 'NONE', *, *, #16, .F. ) ;
#133 = EDGE_CURVE ( 'NONE', #180, #35, #27, .T. ) ;
#134 = ADVANCED_FACE ( 'NONE', ( #168 ), #193, .T. ) ;
#135 = VECTOR ( 'NONE', #160, 1000.000000000000000 ) ;
#136 = CARTESIAN_POINT ( 'NONE',  ( -6.938893903907227600E-015, 2.162485026013585700, -0.1837132306652299000 ) ) ;
#137 = CC_DESIGN_PERSON_AND_ORGANIZATION_ASSIGNMENT ( #53, #30, ( #58 ) ) ;
#138 = CARTESIAN_POINT ( 'NONE',  ( -4.296808024926377800, 2.162485026013584400, -0.002605838566527665100 ) ) ;
#139 = CARTESIAN_POINT ( 'NONE',  ( 4.144590925364885600E-015, -6.350000000000008500, 0.5330352664116369000 ) ) ;
#140 = COORDINATED_UNIVERSAL_TIME_OFFSET ( 2, 0, .AHEAD. ) ;
#141 = ORIENTED_EDGE ( 'NONE', *, *, #1, .T. ) ;
#142 = CARTESIAN_POINT ( 'NONE',  ( -4.214900726469808800, 6.425473222214766800, 0.7235291009765184600 ) ) ;
#143 = APPROVAL_STATUS ( 'not_yet_approved' ) ;
#144 = VERTEX_POINT ( 'NONE', #139 ) ;
#145 = DIRECTION ( 'NONE',  ( 0.0000000000000000000, 0.0000000000000000000, 1.000000000000000000 ) ) ;
#146 = CARTESIAN_POINT ( 'NONE',  ( 4.214900726469784000, 6.425473222214770400, 0.7235291009765191200 ) ) ;
#147 = DATE_AND_TIME ( #154, #201 ) ;
#148 = ORIENTED_EDGE ( 'NONE', *, *, #1, .F. ) ;
#149 = EDGE_CURVE ( 'NONE', #60, #192, #36, .T. ) ;
#150 = CALENDAR_DATE ( 2018, 13, 12 ) ;
#151 = ORIENTED_EDGE ( 'NONE', *, *, #131, .F. ) ;
#152 = APPROVAL ( #49, 'UNSPECIFIED' ) ;
#153 = PERSON_AND_ORGANIZATION ( #21, #191 ) ;
#154 = CALENDAR_DATE ( 2018, 13, 12 ) ;
#155 = AXIS2_PLACEMENT_3D ( 'NONE', #115, #186, #40 ) ;
#156 = DIRECTION ( 'NONE',  ( 1.000000000000000000, 0.0000000000000000000, 0.0000000000000000000 ) ) ;
#157 = APPROVAL_DATE_TIME ( #228, #89 ) ;
#158 = CARTESIAN_POINT ( 'NONE',  ( -6.997765601361294200E-016, 6.350000000000003200, 0.5330352664116404500 ) ) ;
#159 = CARTESIAN_POINT ( 'NONE',  ( -6.296196088459419500, 6.425473222214765900, 1.077578994528483000 ) ) ;
#160 = DIRECTION ( 'NONE',  ( 0.0000000000000000000, 0.0000000000000000000, 1.000000000000000000 ) ) ;
#161 = AXIS2_PLACEMENT_3D ( 'NONE', #17, #39, #73 ) ;
#162 = PERSON_AND_ORGANIZATION ( #21, #191 ) ;
#163 = CARTESIAN_POINT ( 'NONE',  ( 1.133809494234281400E-015, 2.162485026013586200, -0.1837132306652317600 ) ) ;
#164 = CC_DESIGN_APPROVAL ( #152, ( #54 ) ) ;
#165 = CARTESIAN_POINT ( 'NONE',  ( -7.327978051398045900E-016, 6.425473222214769500, 0.5458740430596686900 ) ) ;
#166 = ORIENTED_EDGE ( 'NONE', *, *, #82, .F. ) ;
#167 = CC_DESIGN_PERSON_AND_ORGANIZATION_ASSIGNMENT ( #101, #87, ( #63 ) ) ;
#168 = FACE_OUTER_BOUND ( 'NONE', #91, .T. ) ;
#169 = CARTESIAN_POINT ( 'NONE',  ( -4.214900726469801700, -6.425473222214777500, 0.7235291009765114600 ) ) ;
#170 = AXIS2_PLACEMENT_3D ( 'NONE', #78, #22, #103 ) ;
#171 = ADVANCED_FACE ( 'NONE', ( #55 ), #42, .T. ) ;
#172 = DIRECTION ( 'NONE',  ( 1.000000000000000000, 0.0000000000000000000, 0.0000000000000000000 ) ) ;
#173 = CARTESIAN_POINT ( 'NONE',  ( 2.498001805406600200E-016, 1.221245327087670000E-015, 0.5330352664116370100 ) ) ;
#174 = CC_DESIGN_DATE_AND_TIME_ASSIGNMENT ( #37, #83, ( #70 ) ) ;
#175 = CARTESIAN_POINT ( 'NONE',  ( 2.111194380194207500, -6.425473222214773900, 0.5458740430596623600 ) ) ;
#176 = CYLINDRICAL_SURFACE ( 'NONE', #161, 6.349999999999999600 ) ;
#177 = CC_DESIGN_DATE_AND_TIME_ASSIGNMENT ( #72, #129, ( #58 ) ) ;
#178 = EDGE_LOOP ( 'NONE', ( #148, #88, #3 ) ) ;
#179 = SHAPE_DEFINITION_REPRESENTATION ( #10, #34 ) ;
#180 = VERTEX_POINT ( 'NONE', #120 ) ;
#181 = CC_DESIGN_APPROVAL ( #71, ( #58 ) ) ;
#182 = MANIFOLD_SOLID_BREP ( 'Imported1', #51 ) ;
#183 = AXIS2_PLACEMENT_3D ( 'NONE', #79, #209, #156 ) ;
#184 = CIRCLE ( 'NONE', #15, 6.349999999999999600 ) ;
#185 = DIRECTION ( 'NONE',  ( 1.000000000000000000, 0.0000000000000000000, 0.0000000000000000000 ) ) ;
#186 = DIRECTION ( 'NONE',  ( 1.000000000000000000, 3.814462587008669800E-016, 3.296471987775830200E-016 ) ) ;
#187 = VERTEX_POINT ( 'NONE', #158 ) ;
#188 = ADVANCED_FACE ( 'NONE', ( #224 ), #18, .T. ) ;
#189 = CARTESIAN_POINT ( 'NONE',  ( 2.498001805406600200E-016, 1.221245327087670000E-015, 0.5330352664116370100 ) ) ;
#190 = CARTESIAN_POINT ( 'NONE',  ( 6.349999999999999600, 1.221245327087670000E-015, 3.500000000000000000 ) ) ;
#191 = ORGANIZATION ( 'UNSPECIFIED', 'UNSPECIFIED', '' ) ;
#192 = VERTEX_POINT ( 'NONE', #190 ) ;
#193 = PLANE ( 'NONE',  #99 ) ;
#194 = PERSON_AND_ORGANIZATION_ROLE ( 'classification_officer' ) ;
#195 = LOCAL_TIME ( 16, 52, 46.00000000000000000, #111 ) ;
#196 = APPLICATION_PROTOCOL_DEFINITION ( 'international standard', 'config_control_design', 1994, #12 ) ;
#197 = EDGE_LOOP ( 'NONE', ( #9, #130, #219, #211, #95 ) ) ;
#198 = APPROVAL_STATUS ( 'not_yet_approved' ) ;
#199 = APPROVAL_ROLE ( '' ) ;
#200 = DATE_AND_TIME ( #56, #109 ) ;
#201 = LOCAL_TIME ( 16, 52, 46.00000000000000000, #5 ) ;
#202 = ORIENTED_EDGE ( 'NONE', *, *, #131, .T. ) ;
#203 = CC_DESIGN_PERSON_AND_ORGANIZATION_ASSIGNMENT ( #45, #214, ( #54 ) ) ;
#204 = PERSON_AND_ORGANIZATION ( #21, #191 ) ;
#205 = CARTESIAN_POINT ( 'NONE',  ( 2.498001805406600200E-016, 1.221245327087670000E-015, 3.500000000000000000 ) ) ;
#206 = CARTESIAN_POINT ( 'NONE',  ( 6.349999999999999600, 1.221245327087670000E-015, 0.5330352664116370100 ) ) ;
#207 = APPROVAL_PERSON_ORGANIZATION ( #218, #89, #11 ) ;
#208 = CIRCLE ( 'NONE', #210, 6.349999999999999600 ) ;
#209 = DIRECTION ( 'NONE',  ( -0.0000000000000000000, -0.0000000000000000000, -1.000000000000000000 ) ) ;
#210 = AXIS2_PLACEMENT_3D ( 'NONE', #173, #7, #172 ) ;
#211 = ORIENTED_EDGE ( 'NONE', *, *, #149, .T. ) ;
#212 = CARTESIAN_POINT ( 'NONE',  ( 4.296808024926357400, 2.162485026013588400, -0.002605838566526960400 ) ) ;
#213 = CC_DESIGN_APPROVAL ( #89, ( #70 ) ) ;
#214 = PERSON_AND_ORGANIZATION_ROLE ( 'creator' ) ;
#215 = ORIENTED_EDGE ( 'NONE', *, *, #28, .F. ) ;
#216 = COORDINATED_UNIVERSAL_TIME_OFFSET ( 2, 0, .AHEAD. ) ;
#217 = VECTOR ( 'NONE', #80, 1000.000000000000000 ) ;
#218 = PERSON_AND_ORGANIZATION ( #21, #191 ) ;
#219 = ORIENTED_EDGE ( 'NONE', *, *, #107, .F. ) ;
#220 = CARTESIAN_POINT ( 'NONE',  ( -6.349999999999999600, 1.998896044546239400E-015, 3.500000000000000000 ) ) ;
#221 = CARTESIAN_POINT ( 'NONE',  ( -2.111194380194214100, -6.425473222214776600, 0.5458740430596636900 ) ) ;
#222 = CARTESIAN_POINT ( 'NONE',  ( 4.296808024926359200, -2.162485026013589300, -0.002605838566532923100 ) ) ;
#223 = CC_DESIGN_SECURITY_CLASSIFICATION ( #70, ( #54 ) ) ;
#224 = FACE_OUTER_BOUND ( 'NONE', #14, .T. ) ;
#225 = CARTESIAN_POINT ( 'NONE',  ( -6.418548771387363200, -2.162485026013594200, 0.3583242337088729500 ) ) ;
#226 = DIRECTION ( 'NONE',  ( 1.000000000000000000, 0.0000000000000000000, 0.0000000000000000000 ) ) ;
#227 = CARTESIAN_POINT ( 'NONE',  ( 2.783553139573342500E-015, -2.162485026013590600, -0.1837132306652377300 ) ) ;
#228 = DATE_AND_TIME ( #150, #195 ) ;
#229 = FACE_OUTER_BOUND ( 'NONE', #178, .T. ) ;
#230 =( NAMED_UNIT ( * ) SI_UNIT ( $, .STERADIAN. ) SOLID_ANGLE_UNIT ( ) );
#231 = DIRECTION ( 'NONE',  ( 1.000000000000000000, 0.0000000000000000000, 0.0000000000000000000 ) ) ;
#232 =( GEOMETRIC_REPRESENTATION_CONTEXT ( 3 ) GLOBAL_UNCERTAINTY_ASSIGNED_CONTEXT ( ( #90 ) ) GLOBAL_UNIT_ASSIGNED_CONTEXT ( ( #125, #127, #230 ) ) REPRESENTATION_CONTEXT ( 'NONE', 'WORKASPACE' ) );
#233 = CALENDAR_DATE ( 2018, 13, 12 ) ;
#234 = CIRCLE ( 'NONE', #32, 6.349999999999999600 ) ;
#235 = PRODUCT_RELATED_PRODUCT_CATEGORY ( 'detail', '', ( #63 ) ) ;
ENDSEC;
END-ISO-10303-21;
