ISO-10303-21;
HEADER;
FILE_DESCRIPTION (( 'STEP AP203' ),
    '1' );
FILE_NAME ('110-1111E UVFS pl-cx 12.7 F75.STEP',
    '2018-12-13T14:52:58',
    ( '' ),
    ( '' ),
    'SwSTEP 2.0',
    'SolidWorks 2017',
    '' );
FILE_SCHEMA (( 'CONFIG_CONTROL_DESIGN' ));
ENDSEC;

DATA;
#1 = PERSON_AND_ORGANIZATION ( #129, #66 ) ;
#2 = ORIENTED_EDGE ( 'NONE', *, *, #53, .F. ) ;
#3 = CARTESIAN_POINT ( 'NONE',  ( -2.162711474642469600, -2.165350998062652200, -0.1964107762727118900 ) ) ;
#4 = CARTESIAN_POINT ( 'NONE',  ( -4.222947713046514700, 6.425371825435536100, 0.7734586540493831900 ) ) ;
#5 = PRODUCT_DEFINITION_FORMATION_WITH_SPECIFIED_SOURCE ( 'ANY', '', #109, .NOT_KNOWN. ) ;
#6 = CARTESIAN_POINT ( 'NONE',  ( 2.498001805406600200E-016, 1.221245327087670000E-015, 0.5691178255297689700 ) ) ;
#7 = APPLICATION_CONTEXT ( 'configuration controlled 3d designs of mechanical parts and assemblies' ) ;
#8 = CARTESIAN_POINT ( 'NONE',  ( 1.027450897999229200E-015, 6.350000000000000500, 0.5691178255297698600 ) ) ;
#9 = PERSON_AND_ORGANIZATION ( #129, #66 ) ;
#10 = EDGE_LOOP ( 'NONE', ( #175, #43 ) ) ;
#11 = DIRECTION ( 'NONE',  ( 2.635097962665550100E-032, 1.370148297953330000E-016, -1.000000000000000000 ) ) ;
#12 = PRODUCT_DEFINITION_SHAPE ( 'NONE', 'NONE',  #182 ) ;
#13 = AXIS2_PLACEMENT_3D ( 'NONE', #62, #118, #92 ) ;
#14 = EDGE_LOOP ( 'NONE', ( #215, #97 ) ) ;
#15 = APPROVAL_STATUS ( 'not_yet_approved' ) ;
#16 = PERSON_AND_ORGANIZATION_ROLE ( 'design_owner' ) ;
#17 = APPROVAL_ROLE ( '' ) ;
#18 = PERSON_AND_ORGANIZATION ( #129, #66 ) ;
#19 = EDGE_LOOP ( 'NONE', ( #24, #142 ) ) ;
#20 = DATE_AND_TIME ( #133, #151 ) ;
#21 = CARTESIAN_POINT ( 'NONE',  ( -4.316626044406058700, 2.165350998062654000, -0.001544286823251317600 ) ) ;
#22 = APPROVAL_DATE_TIME ( #214, #91 ) ;
#23 = CARTESIAN_POINT ( 'NONE',  ( -4.222947713046514700, -6.425371825435534300, 0.7734586540493831900 ) ) ;
#24 = ORIENTED_EDGE ( 'NONE', *, *, #71, .T. ) ;
#25 = CARTESIAN_POINT ( 'NONE',  ( 2.162711474642474900, -2.165350998062652200, -0.1964107762727086100 ) ) ;
#26 = DIRECTION ( 'NONE',  ( 1.000000000000000000, 0.0000000000000000000, 0.0000000000000000000 ) ) ;
#27 = CALENDAR_DATE ( 2018, 13, 12 ) ;
#28 = ADVANCED_FACE ( 'NONE', ( #41 ), #93, .T. ) ;
#29 = DIRECTION ( 'NONE',  ( 0.0000000000000000000, -1.000000000000000000, 0.0000000000000000000 ) ) ;
#30 = DIRECTION ( 'NONE',  ( 2.635097962665550100E-032, 1.370148297953330000E-016, -1.000000000000000000 ) ) ;
#31 = DIRECTION ( 'NONE',  ( 0.0000000000000000000, -1.000000000000000000, -1.365923996832131600E-016 ) ) ;
#32 = APPROVAL_PERSON_ORGANIZATION ( #18, #152, #68 ) ;
#33 = FACE_OUTER_BOUND ( 'NONE', #19, .T. ) ;
#34 = ADVANCED_FACE ( 'NONE', ( #211 ), #105, .T. ) ;
#35 = CIRCLE ( 'NONE', #81, 6.349999999999999600 ) ;
#36 = DATE_AND_TIME ( #108, #203 ) ;
#37 = CIRCLE ( 'NONE', #50, 6.349999999999999600 ) ;
#38 = CARTESIAN_POINT ( 'NONE',  ( 3.469446951953614200E-015, 6.425371825435535200, 0.5828211080807195200 ) ) ;
#39 = DIRECTION ( 'NONE',  ( 0.0000000000000000000, -1.000000000000000000, -1.365923996832131600E-016 ) ) ;
#40 = PERSON_AND_ORGANIZATION ( #129, #66 ) ;
#41 = FACE_OUTER_BOUND ( 'NONE', #84, .T. ) ;
#42 = CARTESIAN_POINT ( 'NONE',  ( -2.115776854855519600, 6.425371825435536100, 0.5828211080807189600 ) ) ;
#43 = ORIENTED_EDGE ( 'NONE', *, *, #85, .T. ) ;
#44 = CC_DESIGN_PERSON_AND_ORGANIZATION_ASSIGNMENT ( #54, #67, ( #5 ) ) ;
#45 = CARTESIAN_POINT ( 'NONE',  ( -3.552713678800500100E-015, 1.065814103640150000E-014, 35.71000000000000100 ) ) ;
#46 = ADVANCED_FACE ( 'NONE', ( #167 ), #75, .T. ) ;
#47 = CARTESIAN_POINT ( 'NONE',  ( 2.498001805406599800E-016, 8.881784197001223700E-016, 3.000000000000000000 ) ) ;
#48 = CARTESIAN_POINT ( 'NONE',  ( 2.162711474642474900, 2.165350998062654000, -0.1964107762727062300 ) ) ;
#49 = DATE_AND_TIME ( #183, #94 ) ;
#50 = AXIS2_PLACEMENT_3D ( 'NONE', #6, #157, #104 ) ;
#51 = AXIS2_PLACEMENT_3D ( 'NONE', #45, #121, #29 ) ;
#52 = MANIFOLD_SOLID_BREP ( 'Imported1', #131 ) ;
#53 = EDGE_CURVE ( 'NONE', #125, #57, #80, .T. ) ;
#54 = PERSON_AND_ORGANIZATION ( #129, #66 ) ;
#55 = AXIS2_PLACEMENT_3D ( 'NONE', #63, #120, #208 ) ;
#56 = DIRECTION ( 'NONE',  ( -2.635097962665550100E-032, -1.370148297953330000E-016, 1.000000000000000000 ) ) ;
#57 = VERTEX_POINT ( 'NONE', #189 ) ;
#58 = CARTESIAN_POINT ( 'NONE',  ( 0.0000000000000000000, 13.15799999999999900, 3.000000000000000000 ) ) ;
#59 = DIRECTION ( 'NONE',  ( 0.0000000000000000000, 0.0000000000000000000, 1.000000000000000000 ) ) ;
#60 =( BOUNDED_SURFACE ( )  B_SPLINE_SURFACE ( 3, 3, ( 
 ( #206, #176, #61, #78 ),
 ( #193, #25, #209, #89 ),
 ( #213, #48, #160, #180 ),
 ( #90, #177, #102, #119 ) ),
 .UNSPECIFIED., .F., .F., .F. ) 
 B_SPLINE_SURFACE_WITH_KNOTS ( ( 4, 4 ),
 ( 4, 4 ),
 ( 0.0000000000000000000, 1.000000000000000000 ),
 ( 0.0000000000000000000, 1.000000000000000000 ),
 .UNSPECIFIED. ) 
 GEOMETRIC_REPRESENTATION_ITEM ( )  RATIONAL_B_SPLINE_SURFACE ( (
 ( 1.000000000000000000, 0.9972883099195840600, 0.9972883099195840600, 1.000000000000000000),
 ( 0.9891193669731965800, 0.9864371817974281200, 0.9864371817974281200, 0.9891193669731965800),
 ( 0.9891193669731965800, 0.9864371817974281200, 0.9864371817974281200, 0.9891193669731965800),
 ( 1.000000000000000000, 0.9972883099195840600, 0.9972883099195840600, 1.000000000000000000) ) ) 
 REPRESENTATION_ITEM ( '' )  SURFACE ( )  );
#61 = CARTESIAN_POINT ( 'NONE',  ( 4.222947713046521800, -6.425371825435534300, 0.7734586540493881800 ) ) ;
#62 = CARTESIAN_POINT ( 'NONE',  ( 2.498001805406600200E-016, 1.221245327087670000E-015, 0.5691178255297689700 ) ) ;
#63 = CARTESIAN_POINT ( 'NONE',  ( 2.498001805406600200E-016, 1.221245327087670000E-015, 0.5691178255297689700 ) ) ;
#64 = ORIENTED_EDGE ( 'NONE', *, *, #179, .T. ) ;
#65 = AXIS2_PLACEMENT_3D ( 'NONE', #58, #188, #87 ) ;
#66 = ORGANIZATION ( 'UNSPECIFIED', 'UNSPECIFIED', '' ) ;
#67 = PERSON_AND_ORGANIZATION_ROLE ( 'creator' ) ;
#68 = APPROVAL_ROLE ( '' ) ;
#69 = UNCERTAINTY_MEASURE_WITH_UNIT (LENGTH_MEASURE( 1.000000000000000100E-005 ), #106, 'distance_accuracy_value', 'NONE');
#70 = SHAPE_DEFINITION_REPRESENTATION ( #12, #148 ) ;
#71 = EDGE_CURVE ( 'NONE', #181, #125, #37, .T. ) ;
#72 = CARTESIAN_POINT ( 'NONE',  ( -4.316626044406058700, -2.165350998062652200, -0.001544286823253486400 ) ) ;
#73 = APPROVAL_DATE_TIME ( #49, #98 ) ;
#74 = CARTESIAN_POINT ( 'NONE',  ( 2.498001805406600200E-016, -6.349999999999998800, 0.5691178255297680800 ) ) ;
#75 = PLANE ( 'NONE',  #65 ) ;
#76 = DIRECTION ( 'NONE',  ( -2.635097962665550100E-032, -1.370148297953330000E-016, 1.000000000000000000 ) ) ;
#77 = CC_DESIGN_PERSON_AND_ORGANIZATION_ASSIGNMENT ( #79, #145, ( #122 ) ) ;
#78 = CARTESIAN_POINT ( 'NONE',  ( 6.304370591631294700, -6.425371825435533400, 1.153182896159641300 ) ) ;
#79 = PERSON_AND_ORGANIZATION ( #129, #66 ) ;
#80 = LINE ( 'NONE', #74, #126 ) ;
#81 = AXIS2_PLACEMENT_3D ( 'NONE', #144, #11, #31 ) ;
#82 = DATE_TIME_ROLE ( 'classification_date' ) ;
#83 = PERSON_AND_ORGANIZATION ( #129, #66 ) ;
#84 = EDGE_LOOP ( 'NONE', ( #187, #192, #64, #2 ) ) ;
#85 = EDGE_CURVE ( 'NONE', #125, #181, #139, .T. ) ;
#86 = EDGE_LOOP ( 'NONE', ( #147, #184, #173, #204 ) ) ;
#87 = DIRECTION ( 'NONE',  ( 1.000000000000000000, 0.0000000000000000000, -0.0000000000000000000 ) ) ;
#88 = EDGE_CURVE ( 'NONE', #57, #134, #107, .T. ) ;
#89 = CARTESIAN_POINT ( 'NONE',  ( 6.444221462972099500, -2.165350998062651700, 0.3866034394963305300 ) ) ;
#90 = CARTESIAN_POINT ( 'NONE',  ( 5.316250328610298900E-017, 6.425371825435535200, 0.5828211080807221800 ) ) ;
#91 = APPROVAL ( #198, 'UNSPECIFIED' ) ;
#92 = DIRECTION ( 'NONE',  ( 0.0000000000000000000, -1.000000000000000000, -1.365923996832131600E-016 ) ) ;
#93 = CYLINDRICAL_SURFACE ( 'NONE', #165, 6.349999999999999600 ) ;
#94 = LOCAL_TIME ( 16, 52, 58.00000000000000000, #130 ) ;
#95 = APPROVAL_STATUS ( 'not_yet_approved' ) ;
#96 = APPROVAL_ROLE ( '' ) ;
#97 = ORIENTED_EDGE ( 'NONE', *, *, #179, .F. ) ;
#98 = APPROVAL ( #15, 'UNSPECIFIED' ) ;
#99 = DESIGN_CONTEXT ( 'detailed design', #127, 'design' ) ;
#100 = CARTESIAN_POINT ( 'NONE',  ( -6.444221462972089800, -2.165350998062651700, 0.3866034394963244200 ) ) ;
#101 = APPROVAL_DATE_TIME ( #20, #152 ) ;
#102 = CARTESIAN_POINT ( 'NONE',  ( 4.222947713046521800, 6.425371825435536100, 0.7734586540493881800 ) ) ;
#103 = ADVANCED_FACE ( 'NONE', ( #116 ), #200, .T. ) ;
#104 = DIRECTION ( 'NONE',  ( 0.0000000000000000000, -1.000000000000000000, -1.365923996832131600E-016 ) ) ;
#105 =( BOUNDED_SURFACE ( )  B_SPLINE_SURFACE ( 3, 3, ( 
 ( #117, #23, #138, #171 ),
 ( #100, #72, #3, #174 ),
 ( #115, #21, #137, #136 ),
 ( #153, #4, #42, #38 ) ),
 .UNSPECIFIED., .F., .F., .T. ) 
 B_SPLINE_SURFACE_WITH_KNOTS ( ( 4, 4 ),
 ( 4, 4 ),
 ( 0.0000000000000000000, 1.000000000000000000 ),
 ( 0.0000000000000000000, 1.000000000000000000 ),
 .UNSPECIFIED. ) 
 GEOMETRIC_REPRESENTATION_ITEM ( )  RATIONAL_B_SPLINE_SURFACE ( (
 ( 1.000000000000000000, 0.9972883099195840600, 0.9972883099195840600, 1.000000000000000000),
 ( 0.9891193669731965800, 0.9864371817974281200, 0.9864371817974281200, 0.9891193669731965800),
 ( 0.9891193669731965800, 0.9864371817974281200, 0.9864371817974281200, 0.9891193669731965800),
 ( 1.000000000000000000, 0.9972883099195840600, 0.9972883099195840600, 1.000000000000000000) ) ) 
 REPRESENTATION_ITEM ( '' )  SURFACE ( )  );
#106 =( LENGTH_UNIT ( ) NAMED_UNIT ( * ) SI_UNIT ( .MILLI., .METRE. ) );
#107 = CIRCLE ( 'NONE', #185, 6.349999999999999600 ) ;
#108 = CALENDAR_DATE ( 2018, 13, 12 ) ;
#109 = PRODUCT ( '110-1111E UVFS pl-cx 12.7 F75', '110-1111E UVFS pl-cx 12.7 F75', '', ( #111 ) ) ;
#110 = CC_DESIGN_APPROVAL ( #98, ( #5 ) ) ;
#111 = MECHANICAL_CONTEXT ( 'NONE', #7, 'mechanical' ) ;
#112 = COORDINATED_UNIVERSAL_TIME_OFFSET ( 2, 0, .AHEAD. ) ;
#113 = APPLICATION_PROTOCOL_DEFINITION ( 'international standard', 'config_control_design', 1994, #127 ) ;
#114 = VECTOR ( 'NONE', #123, 1000.000000000000000 ) ;
#115 = CARTESIAN_POINT ( 'NONE',  ( -6.444221462972089800, 2.165350998062653500, 0.3866034394963265800 ) ) ;
#116 = FACE_OUTER_BOUND ( 'NONE', #86, .T. ) ;
#117 = CARTESIAN_POINT ( 'NONE',  ( -6.304370591631286700, -6.425371825435533400, 1.153182896159635100 ) ) ;
#118 = DIRECTION ( 'NONE',  ( -2.635097962665550100E-032, -1.370148297953330000E-016, 1.000000000000000000 ) ) ;
#119 = CARTESIAN_POINT ( 'NONE',  ( 6.304370591631294700, 6.425371825435535200, 1.153182896159641300 ) ) ;
#120 = DIRECTION ( 'NONE',  ( 2.635097962665550100E-032, 1.370148297953330000E-016, -1.000000000000000000 ) ) ;
#121 = DIRECTION ( 'NONE',  ( 1.000000000000000000, 0.0000000000000000000, -4.112098451893469900E-016 ) ) ;
#122 = SECURITY_CLASSIFICATION ( '', '', #150 ) ;
#123 = DIRECTION ( 'NONE',  ( -2.635097962665550100E-032, -1.370148297953330000E-016, 1.000000000000000000 ) ) ;
#124 = PERSON_AND_ORGANIZATION ( #129, #66 ) ;
#125 = VERTEX_POINT ( 'NONE', #143 ) ;
#126 = VECTOR ( 'NONE', #76, 1000.000000000000000 ) ;
#127 = APPLICATION_CONTEXT ( 'configuration controlled 3d designs of mechanical parts and assemblies' ) ;
#128 = CC_DESIGN_PERSON_AND_ORGANIZATION_ASSIGNMENT ( #1, #186, ( #5 ) ) ;
#129 = PERSON ( 'UNSPECIFIED', 'UNSPECIFIED', 'UNSPECIFIED', ('UNSPECIFIED'), ('UNSPECIFIED'), ('UNSPECIFIED') ) ;
#130 = COORDINATED_UNIVERSAL_TIME_OFFSET ( 2, 0, .AHEAD. ) ;
#131 = CLOSED_SHELL ( 'NONE', ( #178, #28, #34, #103, #46 ) ) ;
#132 = DATE_TIME_ROLE ( 'creation_date' ) ;
#133 = CALENDAR_DATE ( 2018, 13, 12 ) ;
#134 = VERTEX_POINT ( 'NONE', #191 ) ;
#135 =( GEOMETRIC_REPRESENTATION_CONTEXT ( 3 ) GLOBAL_UNCERTAINTY_ASSIGNED_CONTEXT ( ( #69 ) ) GLOBAL_UNIT_ASSIGNED_CONTEXT ( ( #106, #162, #140 ) ) REPRESENTATION_CONTEXT ( 'NONE', 'WORKASPACE' ) );
#136 = CARTESIAN_POINT ( 'NONE',  ( 4.336808689942017700E-015, 2.165350998062653500, -0.1964107762727092000 ) ) ;
#137 = CARTESIAN_POINT ( 'NONE',  ( -2.162711474642469200, 2.165350998062654000, -0.1964107762727097000 ) ) ;
#138 = CARTESIAN_POINT ( 'NONE',  ( -2.115776854855519600, -6.425371825435534300, 0.5828211080807189600 ) ) ;
#139 = CIRCLE ( 'NONE', #55, 6.349999999999999600 ) ;
#140 =( NAMED_UNIT ( * ) SI_UNIT ( $, .STERADIAN. ) SOLID_ANGLE_UNIT ( ) );
#141 = CC_DESIGN_DATE_AND_TIME_ASSIGNMENT ( #36, #82, ( #122 ) ) ;
#142 = ORIENTED_EDGE ( 'NONE', *, *, #172, .T. ) ;
#143 = CARTESIAN_POINT ( 'NONE',  ( 2.498001805406600200E-016, -6.349999999999998800, 0.5691178255297680800 ) ) ;
#144 = CARTESIAN_POINT ( 'NONE',  ( 2.498001805406599800E-016, 8.881784197001223700E-016, 3.000000000000000000 ) ) ;
#145 = PERSON_AND_ORGANIZATION_ROLE ( 'classification_officer' ) ;
#146 = APPLICATION_PROTOCOL_DEFINITION ( 'international standard', 'config_control_design', 1994, #7 ) ;
#147 = ORIENTED_EDGE ( 'NONE', *, *, #149, .F. ) ;
#148 = ADVANCED_BREP_SHAPE_REPRESENTATION ( '110-1111E UVFS pl-cx 12.7 F75', ( #52, #156 ), #135 ) ;
#149 = EDGE_CURVE ( 'NONE', #181, #134, #163, .T. ) ;
#150 = SECURITY_CLASSIFICATION_LEVEL ( 'unclassified' ) ;
#151 = LOCAL_TIME ( 16, 52, 58.00000000000000000, #154 ) ;
#152 = APPROVAL ( #95, 'UNSPECIFIED' ) ;
#153 = CARTESIAN_POINT ( 'NONE',  ( -6.304370591631286700, 6.425371825435535200, 1.153182896159635100 ) ) ;
#154 = COORDINATED_UNIVERSAL_TIME_OFFSET ( 2, 0, .AHEAD. ) ;
#155 = CIRCLE ( 'NONE', #51, 35.71000000000000100 ) ;
#156 = AXIS2_PLACEMENT_3D ( 'NONE', #194, #59, #26 ) ;
#157 = DIRECTION ( 'NONE',  ( 2.635097962665550100E-032, 1.370148297953330000E-016, -1.000000000000000000 ) ) ;
#158 = COORDINATED_UNIVERSAL_TIME_OFFSET ( 2, 0, .AHEAD. ) ;
#159 = DIRECTION ( 'NONE',  ( 0.0000000000000000000, -1.000000000000000000, -1.365923996832131600E-016 ) ) ;
#160 = CARTESIAN_POINT ( 'NONE',  ( 4.316626044406065800, 2.165350998062654000, -0.001544286823246276500 ) ) ;
#161 = CC_DESIGN_APPROVAL ( #152, ( #122 ) ) ;
#162 =( NAMED_UNIT ( * ) PLANE_ANGLE_UNIT ( ) SI_UNIT ( $, .RADIAN. ) );
#163 = LINE ( 'NONE', #8, #114 ) ;
#164 = LOCAL_TIME ( 16, 52, 58.00000000000000000, #112 ) ;
#165 = AXIS2_PLACEMENT_3D ( 'NONE', #169, #56, #39 ) ;
#166 = APPROVAL_PERSON_ORGANIZATION ( #9, #98, #96 ) ;
#167 = FACE_OUTER_BOUND ( 'NONE', #14, .T. ) ;
#168 = CC_DESIGN_PERSON_AND_ORGANIZATION_ASSIGNMENT ( #40, #16, ( #109 ) ) ;
#169 = CARTESIAN_POINT ( 'NONE',  ( 2.498001805406600200E-016, 1.221245327087670000E-015, 0.5691178255297689700 ) ) ;
#170 = LOCAL_TIME ( 16, 52, 58.00000000000000000, #202 ) ;
#171 = CARTESIAN_POINT ( 'NONE',  ( 3.469446951953614200E-015, -6.425371825435533400, 0.5828211080807195200 ) ) ;
#172 = EDGE_CURVE ( 'NONE', #125, #181, #155, .T. ) ;
#173 = ORIENTED_EDGE ( 'NONE', *, *, #53, .T. ) ;
#174 = CARTESIAN_POINT ( 'NONE',  ( 4.336808689942017700E-015, -2.165350998062651700, -0.1964107762727114200 ) ) ;
#175 = ORIENTED_EDGE ( 'NONE', *, *, #172, .F. ) ;
#176 = CARTESIAN_POINT ( 'NONE',  ( 2.115776854855524500, -6.425371825435534300, 0.5828211080807224100 ) ) ;
#177 = CARTESIAN_POINT ( 'NONE',  ( 2.115776854855524500, 6.425371825435536100, 0.5828211080807224100 ) ) ;
#178 = ADVANCED_FACE ( 'NONE', ( #33 ), #60, .T. ) ;
#179 = EDGE_CURVE ( 'NONE', #134, #57, #35, .T. ) ;
#180 = CARTESIAN_POINT ( 'NONE',  ( 6.444221462972098600, 2.165350998062653500, 0.3866034394963328000 ) ) ;
#181 = VERTEX_POINT ( 'NONE', #196 ) ;
#182 = PRODUCT_DEFINITION ( 'UNKNOWN', '', #5, #99 ) ;
#183 = CALENDAR_DATE ( 2018, 13, 12 ) ;
#184 = ORIENTED_EDGE ( 'NONE', *, *, #85, .F. ) ;
#185 = AXIS2_PLACEMENT_3D ( 'NONE', #47, #30, #159 ) ;
#186 = PERSON_AND_ORGANIZATION_ROLE ( 'design_supplier' ) ;
#187 = ORIENTED_EDGE ( 'NONE', *, *, #71, .F. ) ;
#188 = DIRECTION ( 'NONE',  ( 0.0000000000000000000, 0.0000000000000000000, 1.000000000000000000 ) ) ;
#189 = CARTESIAN_POINT ( 'NONE',  ( 2.498001805406599800E-016, -6.349999999999998800, 2.999999999999999100 ) ) ;
#190 = CC_DESIGN_APPROVAL ( #91, ( #182 ) ) ;
#191 = CARTESIAN_POINT ( 'NONE',  ( 1.027450897999229200E-015, 6.350000000000000500, 3.000000000000000900 ) ) ;
#192 = ORIENTED_EDGE ( 'NONE', *, *, #149, .T. ) ;
#193 = CARTESIAN_POINT ( 'NONE',  ( 1.331522371829766400E-016, -2.165350998062651700, -0.1964107762727088100 ) ) ;
#194 = CARTESIAN_POINT ( 'NONE',  ( 0.0000000000000000000, 0.0000000000000000000, 0.0000000000000000000 ) ) ;
#195 = DATE_AND_TIME ( #27, #170 ) ;
#196 = CARTESIAN_POINT ( 'NONE',  ( 1.027450897999229200E-015, 6.350000000000000500, 0.5691178255297698600 ) ) ;
#197 = CC_DESIGN_SECURITY_CLASSIFICATION ( #122, ( #5 ) ) ;
#198 = APPROVAL_STATUS ( 'not_yet_approved' ) ;
#199 = PERSON_AND_ORGANIZATION_ROLE ( 'creator' ) ;
#200 = CYLINDRICAL_SURFACE ( 'NONE', #13, 6.349999999999999600 ) ;
#201 = CC_DESIGN_PERSON_AND_ORGANIZATION_ASSIGNMENT ( #124, #199, ( #182 ) ) ;
#202 = COORDINATED_UNIVERSAL_TIME_OFFSET ( 2, 0, .AHEAD. ) ;
#203 = LOCAL_TIME ( 16, 52, 58.00000000000000000, #158 ) ;
#204 = ORIENTED_EDGE ( 'NONE', *, *, #88, .T. ) ;
#205 = APPROVAL_PERSON_ORGANIZATION ( #83, #91, #17 ) ;
#206 = CARTESIAN_POINT ( 'NONE',  ( 5.316250328610298900E-017, -6.425371825435533400, 0.5828211080807221800 ) ) ;
#207 = PRODUCT_RELATED_PRODUCT_CATEGORY ( 'detail', '', ( #109 ) ) ;
#208 = DIRECTION ( 'NONE',  ( 0.0000000000000000000, -1.000000000000000000, -1.365923996832131600E-016 ) ) ;
#209 = CARTESIAN_POINT ( 'NONE',  ( 4.316626044406065800, -2.165350998062652200, -0.001544286823248661700 ) ) ;
#210 = CALENDAR_DATE ( 2018, 13, 12 ) ;
#211 = FACE_OUTER_BOUND ( 'NONE', #10, .T. ) ;
#212 = CC_DESIGN_DATE_AND_TIME_ASSIGNMENT ( #195, #132, ( #182 ) ) ;
#213 = CARTESIAN_POINT ( 'NONE',  ( 1.331522371829763700E-016, 2.165350998062653500, -0.1964107762727064200 ) ) ;
#214 = DATE_AND_TIME ( #210, #164 ) ;
#215 = ORIENTED_EDGE ( 'NONE', *, *, #88, .F. ) ;
ENDSEC;
END-ISO-10303-21;
