ISO-10303-21;
HEADER;
FILE_DESCRIPTION (( 'STEP AP203' ),
    '1' );
FILE_NAME ('110-1109E UVFS pl-cx 12.7 F50.STEP',
    '2018-12-13T14:53:13',
    ( '' ),
    ( '' ),
    'SwSTEP 2.0',
    'SolidWorks 2017',
    '' );
FILE_SCHEMA (( 'CONFIG_CONTROL_DESIGN' ));
ENDSEC;

DATA;
#1 = APPROVAL_ROLE ( '' ) ;
#2 = APPLICATION_CONTEXT ( 'configuration controlled 3d designs of mechanical parts and assemblies' ) ;
#3 = EDGE_LOOP ( 'NONE', ( #146, #150 ) ) ;
#4 = COORDINATED_UNIVERSAL_TIME_OFFSET ( 2, 0, .AHEAD. ) ;
#5 = FACE_OUTER_BOUND ( 'NONE', #118, .T. ) ;
#6 = ORIENTED_EDGE ( 'NONE', *, *, #136, .F. ) ;
#7 = PRODUCT_DEFINITION_FORMATION_WITH_SPECIFIED_SOURCE ( 'ANY', '', #134, .NOT_KNOWN. ) ;
#8 = CARTESIAN_POINT ( 'NONE',  ( 1.248810188673018800E-016, -6.424304716581959300, 0.8834490180458682800 ) ) ;
#9 = ORIENTED_EDGE ( 'NONE', *, *, #172, .T. ) ;
#10 = CARTESIAN_POINT ( 'NONE',  ( -6.488860918692415300, 2.195772526892453100, 0.5879571138722647900 ) ) ;
#11 = ADVANCED_FACE ( 'NONE', ( #67 ), #203, .T. ) ;
#12 = CALENDAR_DATE ( 2018, 13, 12 ) ;
#13 = CARTESIAN_POINT ( 'NONE',  ( 4.158104514498131000, 6.424304716581957600, 1.167251607442714600 ) ) ;
#14 = DIRECTION ( 'NONE',  ( 2.997126487863779900E-032, 1.558389029280499900E-016, -1.000000000000000000 ) ) ;
#15 = DIRECTION ( 'NONE',  ( 0.0000000000000000000, -1.000000000000000000, -1.536664496436148200E-016 ) ) ;
#16 = AXIS2_PLACEMENT_3D ( 'NONE', #65, #79, #111 ) ;
#17 = APPROVAL_ROLE ( '' ) ;
#18 = DATE_AND_TIME ( #98, #139 ) ;
#19 = SECURITY_CLASSIFICATION_LEVEL ( 'unclassified' ) ;
#20 = FACE_OUTER_BOUND ( 'NONE', #54, .T. ) ;
#21 = VERTEX_POINT ( 'NONE', #191 ) ;
#22 = APPROVAL_PERSON_ORGANIZATION ( #105, #184, #17 ) ;
#23 = EDGE_CURVE ( 'NONE', #28, #21, #83, .T. ) ;
#24 = CARTESIAN_POINT ( 'NONE',  ( -4.373190772274043100, 2.195772526892453900, -0.003472490031443723400 ) ) ;
#25 = CARTESIAN_POINT ( 'NONE',  ( 1.027450897999229200E-015, 6.350000000000000500, 0.8627486389497840400 ) ) ;
#26 = DESIGN_CONTEXT ( 'detailed design', #2, 'design' ) ;
#27 = LOCAL_TIME ( 16, 53, 13.00000000000000000, #4 ) ;
#28 = VERTEX_POINT ( 'NONE', #25 ) ;
#29 = CARTESIAN_POINT ( 'NONE',  ( 2.498001805406599800E-016, 8.881784197001225700E-016, 3.000000000000000000 ) ) ;
#30 = CARTESIAN_POINT ( 'NONE',  ( 2.498001805406600200E-016, 1.221245327087670000E-015, 0.8627486389497830400 ) ) ;
#31 = DIRECTION ( 'NONE',  ( -2.997126487863779900E-032, -1.558389029280499600E-016, 1.000000000000000000 ) ) ;
#32 = CARTESIAN_POINT ( 'NONE',  ( 4.373190772274047500, 2.195772526892453500, -0.003472490031443506600 ) ) ;
#33 = PERSON_AND_ORGANIZATION ( #88, #152 ) ;
#34 = FACE_OUTER_BOUND ( 'NONE', #3, .T. ) ;
#35 = APPROVAL_ROLE ( '' ) ;
#36 = MECHANICAL_CONTEXT ( 'NONE', #130, 'mechanical' ) ;
#37 = APPROVAL_STATUS ( 'not_yet_approved' ) ;
#38 = APPROVAL_PERSON_ORGANIZATION ( #33, #149, #1 ) ;
#39 = ORIENTED_EDGE ( 'NONE', *, *, #180, .F. ) ;
#40 = SHAPE_DEFINITION_REPRESENTATION ( #187, #188 ) ;
#41 = CARTESIAN_POINT ( 'NONE',  ( -1.040834085586084300E-014, -2.195772526892452600, -0.3019553349840675700 ) ) ;
#42 = CARTESIAN_POINT ( 'NONE',  ( -4.373190772274043100, -2.195772526892453100, -0.003472490031444808100 ) ) ;
#43 = CARTESIAN_POINT ( 'NONE',  ( -6.169719841866214700, 6.424304716581958500, 1.729592981066591100 ) ) ;
#44 = PRODUCT_RELATED_PRODUCT_CATEGORY ( 'detail', '', ( #134 ) ) ;
#45 = DIRECTION ( 'NONE',  ( 0.0000000000000000000, -1.000000000000000000, -1.365923996832131600E-016 ) ) ;
#46 = AXIS2_PLACEMENT_3D ( 'NONE', #209, #210, #106 ) ;
#47 = ORIENTED_EDGE ( 'NONE', *, *, #90, .F. ) ;
#48 = DIRECTION ( 'NONE',  ( 0.0000000000000000000, -1.000000000000000000, -1.536664496436148200E-016 ) ) ;
#49 = SECURITY_CLASSIFICATION ( '', '', #19 ) ;
#50 = CARTESIAN_POINT ( 'NONE',  ( 6.488860918692426900, -2.195772526892453500, 0.5879571138722677900 ) ) ;
#51 = PERSON_AND_ORGANIZATION_ROLE ( 'creator' ) ;
#52 = COORDINATED_UNIVERSAL_TIME_OFFSET ( 2, 0, .AHEAD. ) ;
#53 = CC_DESIGN_PERSON_AND_ORGANIZATION_ASSIGNMENT ( #117, #166, ( #134 ) ) ;
#54 = EDGE_LOOP ( 'NONE', ( #76, #39 ) ) ;
#55 = CIRCLE ( 'NONE', #165, 6.349999999999999600 ) ;
#56 = ORIENTED_EDGE ( 'NONE', *, *, #180, .T. ) ;
#57 = CC_DESIGN_PERSON_AND_ORGANIZATION_ASSIGNMENT ( #157, #167, ( #7 ) ) ;
#58 = ADVANCED_FACE ( 'NONE', ( #20 ), #175, .T. ) ;
#59 =( GEOMETRIC_REPRESENTATION_CONTEXT ( 3 ) GLOBAL_UNCERTAINTY_ASSIGNED_CONTEXT ( ( #206 ) ) GLOBAL_UNIT_ASSIGNED_CONTEXT ( ( #109, #125, #197 ) ) REPRESENTATION_CONTEXT ( 'NONE', 'WORKASPACE' ) );
#60 = ADVANCED_FACE ( 'NONE', ( #34 ), #113, .T. ) ;
#61 = CARTESIAN_POINT ( 'NONE',  ( 2.498001805406599800E-016, -6.349999999999998800, 2.999999999999999100 ) ) ;
#62 = ORIENTED_EDGE ( 'NONE', *, *, #145, .F. ) ;
#63 = COORDINATED_UNIVERSAL_TIME_OFFSET ( 2, 0, .AHEAD. ) ;
#64 = CARTESIAN_POINT ( 'NONE',  ( 2.498001805406600200E-016, 1.221245327087670000E-015, 0.8627486389497830400 ) ) ;
#65 = CARTESIAN_POINT ( 'NONE',  ( 2.498001805406599800E-016, 8.881784197001225700E-016, 3.000000000000000000 ) ) ;
#66 = CC_DESIGN_APPROVAL ( #86, ( #73 ) ) ;
#67 = FACE_OUTER_BOUND ( 'NONE', #133, .T. ) ;
#68 = DATE_TIME_ROLE ( 'classification_date' ) ;
#69 = CIRCLE ( 'NONE', #16, 6.349999999999999600 ) ;
#70 = DATE_AND_TIME ( #110, #190 ) ;
#71 = VECTOR ( 'NONE', #31, 1000.000000000000000 ) ;
#72 = PERSON_AND_ORGANIZATION ( #88, #152 ) ;
#73 = PRODUCT_DEFINITION ( 'UNKNOWN', '', #7, #26 ) ;
#74 = APPROVAL_DATE_TIME ( #179, #149 ) ;
#75 = DIRECTION ( 'NONE',  ( 2.997126487863779900E-032, 1.558389029280499900E-016, -1.000000000000000000 ) ) ;
#76 = ORIENTED_EDGE ( 'NONE', *, *, #95, .F. ) ;
#77 = CARTESIAN_POINT ( 'NONE',  ( 4.158104514498130100, -6.424304716581960200, 1.167251607442711100 ) ) ;
#78 = CARTESIAN_POINT ( 'NONE',  ( -1.040834085586084300E-014, 6.424304716581958500, 0.8834490180458727200 ) ) ;
#79 = DIRECTION ( 'NONE',  ( 2.997126487863779900E-032, 1.558389029280499900E-016, -1.000000000000000000 ) ) ;
#80 = DIRECTION ( 'NONE',  ( 1.000000000000000000, 0.0000000000000000000, 0.0000000000000000000 ) ) ;
#81 = CARTESIAN_POINT ( 'NONE',  ( 6.169719841866224500, 6.424304716581957600, 1.729592981066595300 ) ) ;
#82 = LOCAL_TIME ( 16, 53, 13.00000000000000000, #104 ) ;
#83 = CIRCLE ( 'NONE', #199, 6.349999999999999600 ) ;
#84 = CARTESIAN_POINT ( 'NONE',  ( 1.027450897999229200E-015, 6.350000000000000500, 3.000000000000000900 ) ) ;
#85 = PERSON_AND_ORGANIZATION_ROLE ( 'classification_officer' ) ;
#86 = APPROVAL ( #115, 'UNSPECIFIED' ) ;
#87 = PERSON_AND_ORGANIZATION_ROLE ( 'creator' ) ;
#88 = PERSON ( 'UNSPECIFIED', 'UNSPECIFIED', 'UNSPECIFIED', ('UNSPECIFIED'), ('UNSPECIFIED'), ('UNSPECIFIED') ) ;
#89 = VECTOR ( 'NONE', #214, 1000.000000000000000 ) ;
#90 = EDGE_CURVE ( 'NONE', #28, #161, #205, .T. ) ;
#91 = MANIFOLD_SOLID_BREP ( 'Imported1', #102 ) ;
#92 = ORIENTED_EDGE ( 'NONE', *, *, #23, .F. ) ;
#93 = CARTESIAN_POINT ( 'NONE',  ( -1.040834085586084300E-014, -6.424304716581959300, 0.8834490180458692800 ) ) ;
#94 = ADVANCED_FACE ( 'NONE', ( #174 ), #198, .T. ) ;
#95 = EDGE_CURVE ( 'NONE', #182, #161, #128, .T. ) ;
#96 = CARTESIAN_POINT ( 'NONE',  ( -6.488860918692415300, -2.195772526892453100, 0.5879571138722635700 ) ) ;
#97 = AXIS2_PLACEMENT_3D ( 'NONE', #176, #200, #215 ) ;
#98 = CALENDAR_DATE ( 2018, 13, 12 ) ;
#99 = CARTESIAN_POINT ( 'NONE',  ( 6.169719841866223600, -6.424304716581960200, 1.729592981066591500 ) ) ;
#100 = CARTESIAN_POINT ( 'NONE',  ( 2.196781542352281400, 2.195772526892453500, -0.3019553349840671300 ) ) ;
#101 = CC_DESIGN_PERSON_AND_ORGANIZATION_ASSIGNMENT ( #116, #87, ( #73 ) ) ;
#102 = CLOSED_SHELL ( 'NONE', ( #60, #94, #11, #155, #58 ) ) ;
#103 = APPLICATION_PROTOCOL_DEFINITION ( 'international standard', 'config_control_design', 1994, #2 ) ;
#104 = COORDINATED_UNIVERSAL_TIME_OFFSET ( 2, 0, .AHEAD. ) ;
#105 = PERSON_AND_ORGANIZATION ( #88, #152 ) ;
#106 = DIRECTION ( 'NONE',  ( 1.000000000000000000, 0.0000000000000000000, -0.0000000000000000000 ) ) ;
#107 = CARTESIAN_POINT ( 'NONE',  ( 2.498001805406600200E-016, 1.221245327087670000E-015, 0.8627486389497830400 ) ) ;
#108 = CARTESIAN_POINT ( 'NONE',  ( -2.196781542352284100, -2.195772526892453100, -0.3019553349840670100 ) ) ;
#109 =( LENGTH_UNIT ( ) NAMED_UNIT ( * ) SI_UNIT ( .MILLI., .METRE. ) );
#110 = CALENDAR_DATE ( 2018, 13, 12 ) ;
#111 = DIRECTION ( 'NONE',  ( 0.0000000000000000000, -1.000000000000000000, -1.365923996832131600E-016 ) ) ;
#112 = CARTESIAN_POINT ( 'NONE',  ( 1.248810188673026400E-016, 6.424304716581958500, 0.8834490180458718400 ) ) ;
#113 =( BOUNDED_SURFACE ( )  B_SPLINE_SURFACE ( 3, 3, ( 
 ( #8, #121, #77, #99 ),
 ( #211, #126, #158, #50 ),
 ( #212, #100, #32, #143 ),
 ( #112, #129, #13, #81 ) ),
 .UNSPECIFIED., .F., .F., .F. ) 
 B_SPLINE_SURFACE_WITH_KNOTS ( ( 4, 4 ),
 ( 4, 4 ),
 ( 0.0000000000000000000, 1.000000000000000000 ),
 ( 0.0000000000000000000, 1.000000000000000000 ),
 .UNSPECIFIED. ) 
 GEOMETRIC_REPRESENTATION_ITEM ( )  RATIONAL_B_SPLINE_SURFACE ( (
 ( 1.000000000000000000, 0.9938175274334287700, 0.9938175274334287700, 1.000000000000000000),
 ( 0.9752535289062782600, 0.9692240507183633700, 0.9692240507183633700, 0.9752535289062782600),
 ( 0.9752535289062782600, 0.9692240507183633700, 0.9692240507183633700, 0.9752535289062782600),
 ( 1.000000000000000000, 0.9938175274334287700, 0.9938175274334287700, 1.000000000000000000) ) ) 
 REPRESENTATION_ITEM ( '' )  SURFACE ( )  );
#114 = CARTESIAN_POINT ( 'NONE',  ( -5.329070518200749800E-015, -7.105427357601000300E-015, 23.80000000000000100 ) ) ;
#115 = APPROVAL_STATUS ( 'not_yet_approved' ) ;
#116 = PERSON_AND_ORGANIZATION ( #88, #152 ) ;
#117 = PERSON_AND_ORGANIZATION ( #88, #152 ) ;
#118 = EDGE_LOOP ( 'NONE', ( #47, #169, #189, #140 ) ) ;
#119 = PERSON_AND_ORGANIZATION ( #88, #152 ) ;
#120 = AXIS2_PLACEMENT_3D ( 'NONE', #127, #177, #48 ) ;
#121 = CARTESIAN_POINT ( 'NONE',  ( 2.088737428637556600, -6.424304716581959300, 0.8834490180458688400 ) ) ;
#122 = CC_DESIGN_DATE_AND_TIME_ASSIGNMENT ( #135, #202, ( #73 ) ) ;
#123 = CARTESIAN_POINT ( 'NONE',  ( -4.158104514498126600, -6.424304716581959300, 1.167251607442710600 ) ) ;
#124 = CARTESIAN_POINT ( 'NONE',  ( -2.196781542352284100, 2.195772526892453900, -0.3019553349840659000 ) ) ;
#125 =( NAMED_UNIT ( * ) PLANE_ANGLE_UNIT ( ) SI_UNIT ( $, .RADIAN. ) );
#126 = CARTESIAN_POINT ( 'NONE',  ( 2.196781542352281400, -2.195772526892453500, -0.3019553349840681800 ) ) ;
#127 = CARTESIAN_POINT ( 'NONE',  ( 2.498001805406600200E-016, 1.221245327087670000E-015, 0.8627486389497830400 ) ) ;
#128 = CIRCLE ( 'NONE', #148, 6.349999999999999600 ) ;
#129 = CARTESIAN_POINT ( 'NONE',  ( 2.088737428637557100, 6.424304716581958500, 0.8834490180458722800 ) ) ;
#130 = APPLICATION_CONTEXT ( 'configuration controlled 3d designs of mechanical parts and assemblies' ) ;
#131 = CC_DESIGN_DATE_AND_TIME_ASSIGNMENT ( #147, #68, ( #49 ) ) ;
#132 = APPROVAL_DATE_TIME ( #18, #86 ) ;
#133 = EDGE_LOOP ( 'NONE', ( #62, #9 ) ) ;
#134 = PRODUCT ( '110-1109E UVFS pl-cx 12.7 F50', '110-1109E UVFS pl-cx 12.7 F50', '', ( #36 ) ) ;
#135 = DATE_AND_TIME ( #12, #82 ) ;
#136 = EDGE_CURVE ( 'NONE', #21, #182, #154, .T. ) ;
#137 = DIRECTION ( 'NONE',  ( 0.0000000000000000000, -1.000000000000000000, -1.536664496436148200E-016 ) ) ;
#138 = CARTESIAN_POINT ( 'NONE',  ( -4.158104514498126600, 6.424304716581958500, 1.167251607442714200 ) ) ;
#139 = LOCAL_TIME ( 16, 53, 13.00000000000000000, #185 ) ;
#140 = ORIENTED_EDGE ( 'NONE', *, *, #95, .T. ) ;
#141 = APPROVAL_DATE_TIME ( #70, #184 ) ;
#142 = CC_DESIGN_APPROVAL ( #184, ( #49 ) ) ;
#143 = CARTESIAN_POINT ( 'NONE',  ( 6.488860918692426900, 2.195772526892452600, 0.5879571138722690100 ) ) ;
#144 = DIRECTION ( 'NONE',  ( 2.997126487863779900E-032, 1.558389029280499900E-016, -1.000000000000000000 ) ) ;
#145 = EDGE_CURVE ( 'NONE', #21, #28, #173, .T. ) ;
#146 = ORIENTED_EDGE ( 'NONE', *, *, #23, .T. ) ;
#147 = DATE_AND_TIME ( #201, #27 ) ;
#148 = AXIS2_PLACEMENT_3D ( 'NONE', #29, #144, #45 ) ;
#149 = APPROVAL ( #37, 'UNSPECIFIED' ) ;
#150 = ORIENTED_EDGE ( 'NONE', *, *, #145, .T. ) ;
#151 = AXIS2_PLACEMENT_3D ( 'NONE', #30, #164, #163 ) ;
#152 = ORGANIZATION ( 'UNSPECIFIED', 'UNSPECIFIED', '' ) ;
#153 = EDGE_LOOP ( 'NONE', ( #92, #186, #56, #6 ) ) ;
#154 = LINE ( 'NONE', #159, #71 ) ;
#155 = ADVANCED_FACE ( 'NONE', ( #5 ), #171, .T. ) ;
#156 = CARTESIAN_POINT ( 'NONE',  ( -2.088737428637560600, 6.424304716581958500, 0.8834490180458731700 ) ) ;
#157 = PERSON_AND_ORGANIZATION ( #88, #152 ) ;
#158 = CARTESIAN_POINT ( 'NONE',  ( 4.373190772274047500, -2.195772526892453500, -0.003472490031444698800 ) ) ;
#159 = CARTESIAN_POINT ( 'NONE',  ( 2.498001805406600200E-016, -6.349999999999998800, 0.8627486389497820400 ) ) ;
#160 = CALENDAR_DATE ( 2018, 13, 12 ) ;
#161 = VERTEX_POINT ( 'NONE', #84 ) ;
#162 = CC_DESIGN_PERSON_AND_ORGANIZATION_ASSIGNMENT ( #72, #85, ( #49 ) ) ;
#163 = DIRECTION ( 'NONE',  ( 0.0000000000000000000, -1.000000000000000000, -1.536664496436148200E-016 ) ) ;
#164 = DIRECTION ( 'NONE',  ( -2.997126487863779900E-032, -1.558389029280499900E-016, 1.000000000000000000 ) ) ;
#165 = AXIS2_PLACEMENT_3D ( 'NONE', #64, #14, #15 ) ;
#166 = PERSON_AND_ORGANIZATION_ROLE ( 'design_owner' ) ;
#167 = PERSON_AND_ORGANIZATION_ROLE ( 'design_supplier' ) ;
#168 = APPROVAL_PERSON_ORGANIZATION ( #119, #86, #35 ) ;
#169 = ORIENTED_EDGE ( 'NONE', *, *, #172, .F. ) ;
#170 = CC_DESIGN_APPROVAL ( #149, ( #7 ) ) ;
#171 = CYLINDRICAL_SURFACE ( 'NONE', #120, 6.349999999999999600 ) ;
#172 = EDGE_CURVE ( 'NONE', #21, #28, #55, .T. ) ;
#173 = CIRCLE ( 'NONE', #213, 23.80000000000000100 ) ;
#174 = FACE_OUTER_BOUND ( 'NONE', #153, .T. ) ;
#175 = PLANE ( 'NONE',  #46 ) ;
#176 = CARTESIAN_POINT ( 'NONE',  ( 0.0000000000000000000, 0.0000000000000000000, 0.0000000000000000000 ) ) ;
#177 = DIRECTION ( 'NONE',  ( -2.997126487863779900E-032, -1.558389029280499900E-016, 1.000000000000000000 ) ) ;
#178 = CC_DESIGN_SECURITY_CLASSIFICATION ( #49, ( #7 ) ) ;
#179 = DATE_AND_TIME ( #160, #208 ) ;
#180 = EDGE_CURVE ( 'NONE', #161, #182, #69, .T. ) ;
#181 = APPLICATION_PROTOCOL_DEFINITION ( 'international standard', 'config_control_design', 1994, #130 ) ;
#182 = VERTEX_POINT ( 'NONE', #61 ) ;
#183 = APPROVAL_STATUS ( 'not_yet_approved' ) ;
#184 = APPROVAL ( #183, 'UNSPECIFIED' ) ;
#185 = COORDINATED_UNIVERSAL_TIME_OFFSET ( 2, 0, .AHEAD. ) ;
#186 = ORIENTED_EDGE ( 'NONE', *, *, #90, .T. ) ;
#187 = PRODUCT_DEFINITION_SHAPE ( 'NONE', 'NONE',  #73 ) ;
#188 = ADVANCED_BREP_SHAPE_REPRESENTATION ( '110-1109E UVFS pl-cx 12.7 F50', ( #91, #97 ), #59 ) ;
#189 = ORIENTED_EDGE ( 'NONE', *, *, #136, .T. ) ;
#190 = LOCAL_TIME ( 16, 53, 13.00000000000000000, #63 ) ;
#191 = CARTESIAN_POINT ( 'NONE',  ( 2.498001805406600200E-016, -6.349999999999998800, 0.8627486389497820400 ) ) ;
#192 = CARTESIAN_POINT ( 'NONE',  ( -2.088737428637560200, -6.424304716581959300, 0.8834490180458696200 ) ) ;
#193 = CARTESIAN_POINT ( 'NONE',  ( 1.027450897999229200E-015, 6.350000000000000500, 0.8627486389497840400 ) ) ;
#194 = CARTESIAN_POINT ( 'NONE',  ( -6.169719841866213800, -6.424304716581959300, 1.729592981066587500 ) ) ;
#195 = CC_DESIGN_PERSON_AND_ORGANIZATION_ASSIGNMENT ( #204, #51, ( #7 ) ) ;
#196 = DIRECTION ( 'NONE',  ( 0.0000000000000000000, -1.000000000000000000, -5.831003280594309600E-016 ) ) ;
#197 =( NAMED_UNIT ( * ) SI_UNIT ( $, .STERADIAN. ) SOLID_ANGLE_UNIT ( ) );
#198 = CYLINDRICAL_SURFACE ( 'NONE', #151, 6.349999999999999600 ) ;
#199 = AXIS2_PLACEMENT_3D ( 'NONE', #107, #75, #137 ) ;
#200 = DIRECTION ( 'NONE',  ( 0.0000000000000000000, 0.0000000000000000000, 1.000000000000000000 ) ) ;
#201 = CALENDAR_DATE ( 2018, 13, 12 ) ;
#202 = DATE_TIME_ROLE ( 'creation_date' ) ;
#203 =( BOUNDED_SURFACE ( )  B_SPLINE_SURFACE ( 3, 3, ( 
 ( #194, #123, #192, #93 ),
 ( #96, #42, #108, #41 ),
 ( #10, #24, #124, #207 ),
 ( #43, #138, #156, #78 ) ),
 .UNSPECIFIED., .F., .F., .F. ) 
 B_SPLINE_SURFACE_WITH_KNOTS ( ( 4, 4 ),
 ( 4, 4 ),
 ( 0.0000000000000000000, 1.000000000000000000 ),
 ( 0.0000000000000000000, 1.000000000000000000 ),
 .UNSPECIFIED. ) 
 GEOMETRIC_REPRESENTATION_ITEM ( )  RATIONAL_B_SPLINE_SURFACE ( (
 ( 1.000000000000000000, 0.9938175274334287700, 0.9938175274334287700, 1.000000000000000000),
 ( 0.9752535289062782600, 0.9692240507183633700, 0.9692240507183633700, 0.9752535289062782600),
 ( 0.9752535289062782600, 0.9692240507183633700, 0.9692240507183633700, 0.9752535289062782600),
 ( 1.000000000000000000, 0.9938175274334287700, 0.9938175274334287700, 1.000000000000000000) ) ) 
 REPRESENTATION_ITEM ( '' )  SURFACE ( )  );
#204 = PERSON_AND_ORGANIZATION ( #88, #152 ) ;
#205 = LINE ( 'NONE', #193, #89 ) ;
#206 = UNCERTAINTY_MEASURE_WITH_UNIT (LENGTH_MEASURE( 1.000000000000000100E-005 ), #109, 'distance_accuracy_value', 'NONE');
#207 = CARTESIAN_POINT ( 'NONE',  ( -1.040834085586084300E-014, 2.195772526892453500, -0.3019553349840663500 ) ) ;
#208 = LOCAL_TIME ( 16, 53, 13.00000000000000000, #52 ) ;
#209 = CARTESIAN_POINT ( 'NONE',  ( 0.0000000000000000000, 13.15799999999999900, 3.000000000000000000 ) ) ;
#210 = DIRECTION ( 'NONE',  ( 0.0000000000000000000, 0.0000000000000000000, 1.000000000000000000 ) ) ;
#211 = CARTESIAN_POINT ( 'NONE',  ( 4.069975510778355500E-016, -2.195772526892453100, -0.3019553349840686200 ) ) ;
#212 = CARTESIAN_POINT ( 'NONE',  ( 4.069975510778356500E-016, 2.195772526892453100, -0.3019553349840676800 ) ) ;
#213 = AXIS2_PLACEMENT_3D ( 'NONE', #114, #80, #196 ) ;
#214 = DIRECTION ( 'NONE',  ( -2.997126487863779900E-032, -1.558389029280499600E-016, 1.000000000000000000 ) ) ;
#215 = DIRECTION ( 'NONE',  ( 1.000000000000000000, 0.0000000000000000000, 0.0000000000000000000 ) ) ;
ENDSEC;
END-ISO-10303-21;
