ISO-10303-21;
HEADER;
FILE_DESCRIPTION (( 'STEP AP203' ),
    '1' );
FILE_NAME ('110-1108E UVFS pl-cx 12.7 F40.STEP',
    '2019-10-01T07:18:15',
    ( '' ),
    ( '' ),
    'SwSTEP 2.0',
    'SolidWorks 2019',
    '' );
FILE_SCHEMA (( 'CONFIG_CONTROL_DESIGN' ));
ENDSEC;

DATA;
#1 = CLOSED_SHELL ( 'NONE', ( #90, #31, #136, #151 ) ) ;
#2 = PRODUCT ( '110-1108E UVFS pl-cx 12.7 F40', '110-1108E UVFS pl-cx 12.7 F40', '', ( #40 ) ) ;
#3 = CARTESIAN_POINT ( 'NONE',  ( -6.349999999999999645, 7.776507174585690191E-16, 2.500000000000000000 ) ) ;
#4 = VERTEX_POINT ( 'NONE', #117 ) ;
#5 = ORIENTED_EDGE ( 'NONE', *, *, #109, .T. ) ;
#6 = ORIENTED_EDGE ( 'NONE', *, *, #94, .T. ) ;
#7 =( LENGTH_UNIT ( ) NAMED_UNIT ( * ) SI_UNIT ( .MILLI., .METRE. ) );
#8 = ORGANIZATION ( 'UNSPECIFIED', 'UNSPECIFIED', '' ) ;
#9 =( NAMED_UNIT ( * ) PLANE_ANGLE_UNIT ( ) SI_UNIT ( $, .RADIAN. ) );
#10 = APPROVAL_STATUS ( 'not_yet_approved' ) ;
#11 = LOCAL_TIME ( 10, 18, 15.00000000000000000, #134 ) ;
#12 = EDGE_CURVE ( 'NONE', #69, #4, #74, .T. ) ;
#13 = PRODUCT_DEFINITION ( 'UNKNOWN', '', #129, #96 ) ;
#14 = CARTESIAN_POINT ( 'NONE',  ( 6.349999999999999645, 0.0000000000000000000, 1.090094707770739912 ) ) ;
#15 = FACE_OUTER_BOUND ( 'NONE', #81, .T. ) ;
#16 = EDGE_LOOP ( 'NONE', ( #85, #6, #47, #114 ) ) ;
#17 = CARTESIAN_POINT ( 'NONE',  ( 6.350000000000000533, 6.350000000000000533, 1.090094707770740357 ) ) ;
#18 = PERSON_AND_ORGANIZATION ( #98, #8 ) ;
#19 = CARTESIAN_POINT ( 'NONE',  ( 2.498001805406600244E-16, 8.881784197001250351E-16, 1.090094707770739912 ) ) ;
#20 = APPROVAL_DATE_TIME ( #87, #66 ) ;
#21 = CARTESIAN_POINT ( 'NONE',  ( -1.166476076187850077E-15, -6.349999999999999645, 2.500000000000000000 ) ) ;
#22 = PERSON_AND_ORGANIZATION_ROLE ( 'creator' ) ;
#23 = SECURITY_CLASSIFICATION ( '', '', #155 ) ;
#24 = CALENDAR_DATE ( 2019, 1, 10 ) ;
#25 = LOCAL_TIME ( 10, 18, 15.00000000000000000, #79 ) ;
#26 = APPROVAL ( #177, 'UNSPECIFIED' ) ;
#27 = VECTOR ( 'NONE', #173, 1000.000000000000000 ) ;
#28 = CARTESIAN_POINT ( 'NONE',  ( -6.349999999999934808, 6.350000000000001421, 1.090094707770740579 ) ) ;
#29 = APPROVAL_PERSON_ORGANIZATION ( #53, #26, #37 ) ;
#30 = APPROVAL_STATUS ( 'not_yet_approved' ) ;
#31 = ADVANCED_FACE ( 'NONE', ( #107 ), #45, .T. ) ;
#32 = APPLICATION_CONTEXT ( 'configuration controlled 3d designs of mechanical parts and assemblies' ) ;
#33 = DIRECTION ( 'NONE',  ( 0.0000000000000000000, 0.0000000000000000000, 1.000000000000000000 ) ) ;
#34 = DATE_AND_TIME ( #172, #50 ) ;
#35 = ORIENTED_EDGE ( 'NONE', *, *, #78, .T. ) ;
#36 = CC_DESIGN_PERSON_AND_ORGANIZATION_ASSIGNMENT ( #76, #22, ( #129 ) ) ;
#37 = APPROVAL_ROLE ( '' ) ;
#38 = DIRECTION ( 'NONE',  ( 1.000000000000000000, -1.398706172756100243E-16, 0.0000000000000000000 ) ) ;
#39 = PERSON_AND_ORGANIZATION_ROLE ( 'creator' ) ;
#40 = MECHANICAL_CONTEXT ( 'NONE', #32, 'mechanical' ) ;
#41 = APPROVAL ( #30, 'UNSPECIFIED' ) ;
#42 =( NAMED_UNIT ( * ) SI_UNIT ( $, .STERADIAN. ) SOLID_ANGLE_UNIT ( ) );
#43 = DATE_AND_TIME ( #139, #11 ) ;
#44 = CC_DESIGN_PERSON_AND_ORGANIZATION_ASSIGNMENT ( #161, #131, ( #2 ) ) ;
#45 = SPHERICAL_SURFACE ( 'NONE', #54, 19.04000000000000270 ) ;
#46 = DIRECTION ( 'NONE',  ( 1.000000000000000000, -1.398706172756100243E-16, 0.0000000000000000000 ) ) ;
#47 = ORIENTED_EDGE ( 'NONE', *, *, #147, .F. ) ;
#48 = DIRECTION ( 'NONE',  ( 0.0000000000000000000, -1.000000000000000000, 0.0000000000000000000 ) ) ;
#49 = APPLICATION_PROTOCOL_DEFINITION ( 'international standard', 'config_control_design', 1994, #32 ) ;
#50 = LOCAL_TIME ( 10, 18, 15.00000000000000000, #60 ) ;
#51 = EDGE_LOOP ( 'NONE', ( #59, #156 ) ) ;
#52 =( BOUNDED_CURVE ( )  B_SPLINE_CURVE ( 2, ( #169, #111, #166, #137, #3 ),
 .UNSPECIFIED., .F., .T. ) 
 B_SPLINE_CURVE_WITH_KNOTS ( ( 3, 2, 3 ),
 ( 0.0000000000000000000, 1.570796326794894116, 3.141592653589778905 ),
 .UNSPECIFIED. ) 
 CURVE ( )  GEOMETRIC_REPRESENTATION_ITEM ( )  RATIONAL_B_SPLINE_CURVE ( ( 1.000000000000000000, 0.7071067811865480168, 1.000000000000000000, 0.7071067811865501263, 0.9999999999999978906 ) ) 
 REPRESENTATION_ITEM ( '' )  );
#53 = PERSON_AND_ORGANIZATION ( #98, #8 ) ;
#54 = AXIS2_PLACEMENT_3D ( 'NONE', #103, #86, #48 ) ;
#55 =( BOUNDED_CURVE ( )  B_SPLINE_CURVE ( 2, ( #141, #17, #62, #28, #133 ),
 .UNSPECIFIED., .F., .F. ) 
 B_SPLINE_CURVE_WITH_KNOTS ( ( 3, 2, 3 ),
 ( 0.0000000000000000000, 1.570796326794894116, 3.141592653589778905 ),
 .UNSPECIFIED. ) 
 CURVE ( )  GEOMETRIC_REPRESENTATION_ITEM ( )  RATIONAL_B_SPLINE_CURVE ( ( 1.000000000000000000, 0.7071067811865480168, 1.000000000000000000, 0.7071067811865501263, 0.9999999999999978906 ) ) 
 REPRESENTATION_ITEM ( '' )  );
#56 = CARTESIAN_POINT ( 'NONE',  ( -6.349999999999999645, 7.776507174585690191E-16, 1.090094707770739912 ) ) ;
#57 = CARTESIAN_POINT ( 'NONE',  ( -1.166476076187850077E-15, -6.349999999999999645, 1.090094707770739912 ) ) ;
#58 = DIRECTION ( 'NONE',  ( 0.0000000000000000000, 0.0000000000000000000, 1.000000000000000000 ) ) ;
#59 = ORIENTED_EDGE ( 'NONE', *, *, #160, .F. ) ;
#60 = COORDINATED_UNIVERSAL_TIME_OFFSET ( 2, 0, .AHEAD. ) ;
#61 = ORIENTED_EDGE ( 'NONE', *, *, #147, .T. ) ;
#62 = CARTESIAN_POINT ( 'NONE',  ( 3.888253587292850026E-16, 6.349999999999999645, 1.090094707770739912 ) ) ;
#63 = LINE ( 'NONE', #75, #27 ) ;
#64 = CALENDAR_DATE ( 2019, 1, 10 ) ;
#65 = ADVANCED_BREP_SHAPE_REPRESENTATION ( '110-1108E UVFS pl-cx 12.7 F40', ( #132, #123 ), #120 ) ;
#66 = APPROVAL ( #10, 'UNSPECIFIED' ) ;
#67 = PRODUCT_RELATED_PRODUCT_CATEGORY ( 'detail', '', ( #2 ) ) ;
#68 = LOCAL_TIME ( 10, 18, 15.00000000000000000, #91 ) ;
#69 = VERTEX_POINT ( 'NONE', #128 ) ;
#70 = APPROVAL_DATE_TIME ( #43, #41 ) ;
#71 = CYLINDRICAL_SURFACE ( 'NONE', #176, 6.349999999999999645 ) ;
#72 = CARTESIAN_POINT ( 'NONE',  ( 6.349999999999999645, 0.0000000000000000000, 2.500000000000000000 ) ) ;
#73 = CARTESIAN_POINT ( 'NONE',  ( 0.0000000000000000000, 13.15799999999999947, 2.500000000000000000 ) ) ;
#74 = LINE ( 'NONE', #127, #135 ) ;
#75 = CARTESIAN_POINT ( 'NONE',  ( -6.349999999999999645, 2.554007556858817709E-15, 1.090094707770739912 ) ) ;
#76 = PERSON_AND_ORGANIZATION ( #98, #8 ) ;
#77 = LOCAL_TIME ( 10, 18, 15.00000000000000000, #80 ) ;
#78 = EDGE_CURVE ( 'NONE', #138, #69, #97, .T. ) ;
#79 = COORDINATED_UNIVERSAL_TIME_OFFSET ( 2, 0, .AHEAD. ) ;
#80 = COORDINATED_UNIVERSAL_TIME_OFFSET ( 2, 0, .AHEAD. ) ;
#81 = EDGE_LOOP ( 'NONE', ( #61, #5 ) ) ;
#82 = DIRECTION ( 'NONE',  ( 1.000000000000000000, 0.0000000000000000000, 0.0000000000000000000 ) ) ;
#83 = CARTESIAN_POINT ( 'NONE',  ( 6.350000000000000533, -6.350000000000000533, 2.499999999999999556 ) ) ;
#84 = SHAPE_DEFINITION_REPRESENTATION ( #170, #65 ) ;
#85 = ORIENTED_EDGE ( 'NONE', *, *, #160, .T. ) ;
#86 = DIRECTION ( 'NONE',  ( 0.0000000000000000000, 0.0000000000000000000, -1.000000000000000000 ) ) ;
#87 = DATE_AND_TIME ( #64, #77 ) ;
#88 = CARTESIAN_POINT ( 'NONE',  ( -6.349999999999999645, 7.776507174585690191E-16, 2.500000000000000000 ) ) ;
#89 = DIRECTION ( 'NONE',  ( 0.0000000000000000000, 0.0000000000000000000, 1.000000000000000000 ) ) ;
#90 = ADVANCED_FACE ( 'NONE', ( #165 ), #154, .T. ) ;
#91 = COORDINATED_UNIVERSAL_TIME_OFFSET ( 2, 0, .AHEAD. ) ;
#92 =( BOUNDED_CURVE ( )  B_SPLINE_CURVE ( 2, ( #88, #144, #21, #83, #72 ),
 .UNSPECIFIED., .F., .F. ) 
 B_SPLINE_CURVE_WITH_KNOTS ( ( 3, 2, 3 ),
 ( 3.141592653589778461, 4.712388980384684345, 6.283185307179590673 ),
 .UNSPECIFIED. ) 
 CURVE ( )  GEOMETRIC_REPRESENTATION_ITEM ( )  RATIONAL_B_SPLINE_CURVE ( ( 1.000000000000002220, 0.7071067811865459074, 1.000000000000000000, 0.7071067811865480168, 1.000000000000000000 ) ) 
 REPRESENTATION_ITEM ( '' )  );
#93 = APPROVAL_PERSON_ORGANIZATION ( #118, #66, #143 ) ;
#94 = EDGE_CURVE ( 'NONE', #138, #112, #63, .T. ) ;
#95 = CC_DESIGN_PERSON_AND_ORGANIZATION_ASSIGNMENT ( #174, #39, ( #13 ) ) ;
#96 = DESIGN_CONTEXT ( 'detailed design', #171, 'design' ) ;
#97 =( BOUNDED_CURVE ( )  B_SPLINE_CURVE ( 2, ( #158, #142, #57, #126, #14 ),
 .UNSPECIFIED., .F., .T. ) 
 B_SPLINE_CURVE_WITH_KNOTS ( ( 3, 2, 3 ),
 ( 3.141592653589778461, 4.712388980384684345, 6.283185307179590673 ),
 .UNSPECIFIED. ) 
 CURVE ( )  GEOMETRIC_REPRESENTATION_ITEM ( )  RATIONAL_B_SPLINE_CURVE ( ( 1.000000000000002220, 0.7071067811865459074, 1.000000000000000000, 0.7071067811865480168, 1.000000000000000000 ) ) 
 REPRESENTATION_ITEM ( '' )  );
#98 = PERSON ( 'UNSPECIFIED', 'UNSPECIFIED', 'UNSPECIFIED', ('UNSPECIFIED'), ('UNSPECIFIED'), ('UNSPECIFIED') ) ;
#99 = CC_DESIGN_DATE_AND_TIME_ASSIGNMENT ( #34, #106, ( #23 ) ) ;
#100 = DIRECTION ( 'NONE',  ( 0.0000000000000000000, 0.0000000000000000000, 1.000000000000000000 ) ) ;
#101 = CC_DESIGN_APPROVAL ( #26, ( #13 ) ) ;
#102 = PERSON_AND_ORGANIZATION_ROLE ( 'classification_officer' ) ;
#103 = CARTESIAN_POINT ( 'NONE',  ( 3.552713678800499352E-15, 1.065814103640149963E-14, 19.04000000000000270 ) ) ;
#104 = ORIENTED_EDGE ( 'NONE', *, *, #12, .T. ) ;
#105 = CC_DESIGN_PERSON_AND_ORGANIZATION_ASSIGNMENT ( #18, #102, ( #23 ) ) ;
#106 = DATE_TIME_ROLE ( 'classification_date' ) ;
#107 = FACE_OUTER_BOUND ( 'NONE', #51, .T. ) ;
#108 = DIRECTION ( 'NONE',  ( 1.000000000000000000, 0.0000000000000000000, 0.0000000000000000000 ) ) ;
#109 = EDGE_CURVE ( 'NONE', #112, #4, #92, .T. ) ;
#110 = CC_DESIGN_APPROVAL ( #41, ( #23 ) ) ;
#111 = CARTESIAN_POINT ( 'NONE',  ( 6.350000000000000533, 6.350000000000000533, 2.499999999999999556 ) ) ;
#112 = VERTEX_POINT ( 'NONE', #164 ) ;
#113 = PLANE ( 'NONE',  #150 ) ;
#114 = ORIENTED_EDGE ( 'NONE', *, *, #12, .F. ) ;
#115 = DIRECTION ( 'NONE',  ( 0.0000000000000000000, 0.0000000000000000000, 1.000000000000000000 ) ) ;
#116 = PERSON_AND_ORGANIZATION ( #98, #8 ) ;
#117 = CARTESIAN_POINT ( 'NONE',  ( 6.349999999999999645, 0.0000000000000000000, 2.500000000000000000 ) ) ;
#118 = PERSON_AND_ORGANIZATION ( #98, #8 ) ;
#119 = CARTESIAN_POINT ( 'NONE',  ( 0.0000000000000000000, 0.0000000000000000000, 0.0000000000000000000 ) ) ;
#120 =( GEOMETRIC_REPRESENTATION_CONTEXT ( 3 ) GLOBAL_UNCERTAINTY_ASSIGNED_CONTEXT ( ( #121 ) ) GLOBAL_UNIT_ASSIGNED_CONTEXT ( ( #7, #9, #42 ) ) REPRESENTATION_CONTEXT ( 'NONE', 'WORKASPACE' ) );
#121 = UNCERTAINTY_MEASURE_WITH_UNIT (LENGTH_MEASURE( 1.000000000000000082E-05 ), #7, 'distance_accuracy_value', 'NONE');
#122 = CC_DESIGN_SECURITY_CLASSIFICATION ( #23, ( #129 ) ) ;
#123 = AXIS2_PLACEMENT_3D ( 'NONE', #119, #89, #108 ) ;
#124 = ORIENTED_EDGE ( 'NONE', *, *, #109, .F. ) ;
#125 = CARTESIAN_POINT ( 'NONE',  ( 2.498001805406600244E-16, 8.881784197001250351E-16, 1.090094707770739912 ) ) ;
#126 = CARTESIAN_POINT ( 'NONE',  ( 6.350000000000000533, -6.350000000000000533, 1.090094707770740357 ) ) ;
#127 = CARTESIAN_POINT ( 'NONE',  ( 6.349999999999999645, 1.540743955509788682E-30, 1.090094707770739912 ) ) ;
#128 = CARTESIAN_POINT ( 'NONE',  ( 6.349999999999999645, 0.0000000000000000000, 1.090094707770739912 ) ) ;
#129 = PRODUCT_DEFINITION_FORMATION_WITH_SPECIFIED_SOURCE ( 'ANY', '', #2, .NOT_KNOWN. ) ;
#130 = DATE_AND_TIME ( #24, #25 ) ;
#131 = PERSON_AND_ORGANIZATION_ROLE ( 'design_owner' ) ;
#132 = MANIFOLD_SOLID_BREP ( '110-1108E.STP', #1 ) ;
#133 = CARTESIAN_POINT ( 'NONE',  ( -6.349999999999999645, 7.776507174585690191E-16, 1.090094707770739912 ) ) ;
#134 = COORDINATED_UNIVERSAL_TIME_OFFSET ( 2, 0, .AHEAD. ) ;
#135 = VECTOR ( 'NONE', #115, 1000.000000000000000 ) ;
#136 = ADVANCED_FACE ( 'NONE', ( #15 ), #113, .T. ) ;
#137 = CARTESIAN_POINT ( 'NONE',  ( -6.349999999999934808, 6.350000000000001421, 2.499999999999999556 ) ) ;
#138 = VERTEX_POINT ( 'NONE', #56 ) ;
#139 = CALENDAR_DATE ( 2019, 1, 10 ) ;
#140 = ORIENTED_EDGE ( 'NONE', *, *, #94, .F. ) ;
#141 = CARTESIAN_POINT ( 'NONE',  ( 6.349999999999999645, 0.0000000000000000000, 1.090094707770739912 ) ) ;
#142 = CARTESIAN_POINT ( 'NONE',  ( -6.350000000000066258, -6.349999999999999645, 1.090094707770740357 ) ) ;
#143 = APPROVAL_ROLE ( '' ) ;
#144 = CARTESIAN_POINT ( 'NONE',  ( -6.350000000000066258, -6.349999999999999645, 2.499999999999999556 ) ) ;
#145 = DATE_TIME_ROLE ( 'creation_date' ) ;
#146 = CALENDAR_DATE ( 2019, 1, 10 ) ;
#147 = EDGE_CURVE ( 'NONE', #4, #112, #52, .T. ) ;
#148 = DATE_AND_TIME ( #146, #68 ) ;
#149 = CC_DESIGN_PERSON_AND_ORGANIZATION_ASSIGNMENT ( #157, #167, ( #129 ) ) ;
#150 = AXIS2_PLACEMENT_3D ( 'NONE', #73, #100, #82 ) ;
#151 = ADVANCED_FACE ( 'NONE', ( #163 ), #71, .T. ) ;
#152 = APPROVAL_ROLE ( '' ) ;
#153 = AXIS2_PLACEMENT_3D ( 'NONE', #19, #33, #38 ) ;
#154 = CYLINDRICAL_SURFACE ( 'NONE', #153, 6.349999999999999645 ) ;
#155 = SECURITY_CLASSIFICATION_LEVEL ( 'unclassified' ) ;
#156 = ORIENTED_EDGE ( 'NONE', *, *, #78, .F. ) ;
#157 = PERSON_AND_ORGANIZATION ( #98, #8 ) ;
#158 = CARTESIAN_POINT ( 'NONE',  ( -6.349999999999999645, 7.776507174585690191E-16, 1.090094707770739912 ) ) ;
#159 = APPROVAL_DATE_TIME ( #148, #26 ) ;
#160 = EDGE_CURVE ( 'NONE', #69, #138, #55, .T. ) ;
#161 = PERSON_AND_ORGANIZATION ( #98, #8 ) ;
#162 = APPROVAL_PERSON_ORGANIZATION ( #116, #41, #152 ) ;
#163 = FACE_OUTER_BOUND ( 'NONE', #168, .T. ) ;
#164 = CARTESIAN_POINT ( 'NONE',  ( -6.349999999999999645, 7.776507174585690191E-16, 2.500000000000000000 ) ) ;
#165 = FACE_OUTER_BOUND ( 'NONE', #16, .T. ) ;
#166 = CARTESIAN_POINT ( 'NONE',  ( 3.888253587292850026E-16, 6.349999999999999645, 2.500000000000000000 ) ) ;
#167 = PERSON_AND_ORGANIZATION_ROLE ( 'design_supplier' ) ;
#168 = EDGE_LOOP ( 'NONE', ( #140, #35, #104, #124 ) ) ;
#169 = CARTESIAN_POINT ( 'NONE',  ( 6.349999999999999645, 0.0000000000000000000, 2.500000000000000000 ) ) ;
#170 = PRODUCT_DEFINITION_SHAPE ( 'NONE', 'NONE',  #13 ) ;
#171 = APPLICATION_CONTEXT ( 'configuration controlled 3d designs of mechanical parts and assemblies' ) ;
#172 = CALENDAR_DATE ( 2019, 1, 10 ) ;
#173 = DIRECTION ( 'NONE',  ( 0.0000000000000000000, 0.0000000000000000000, 1.000000000000000000 ) ) ;
#174 = PERSON_AND_ORGANIZATION ( #98, #8 ) ;
#175 = CC_DESIGN_DATE_AND_TIME_ASSIGNMENT ( #130, #145, ( #13 ) ) ;
#176 = AXIS2_PLACEMENT_3D ( 'NONE', #125, #58, #46 ) ;
#177 = APPROVAL_STATUS ( 'not_yet_approved' ) ;
#178 = APPLICATION_PROTOCOL_DEFINITION ( 'international standard', 'config_control_design', 1994, #171 ) ;
#179 = CC_DESIGN_APPROVAL ( #66, ( #129 ) ) ;
ENDSEC;
END-ISO-10303-21;
