ISO-10303-21;
HEADER;
FILE_DESCRIPTION (( 'STEP AP203' ),
    '1' );
FILE_NAME ('110-1106E UVFS pl-cx 12.7 F30.STEP',
    '2018-12-13T14:53:29',
    ( '' ),
    ( '' ),
    'SwSTEP 2.0',
    'SolidWorks 2017',
    '' );
FILE_SCHEMA (( 'CONFIG_CONTROL_DESIGN' ));
ENDSEC;

DATA;
#1 = CARTESIAN_POINT ( 'NONE',  ( -6.071532165918824000E-015, 2.304245033269831700, -0.5472396460044440800 ) ) ;
#2 = PERSON_AND_ORGANIZATION_ROLE ( 'creator' ) ;
#3 = EDGE_LOOP ( 'NONE', ( #26, #89, #235 ) ) ;
#4 = EDGE_LOOP ( 'NONE', ( #55, #148, #41, #10, #61 ) ) ;
#5 = PERSON_AND_ORGANIZATION ( #210, #159 ) ;
#6 = VERTEX_POINT ( 'NONE', #201 ) ;
#7 = COORDINATED_UNIVERSAL_TIME_OFFSET ( 2, 0, .AHEAD. ) ;
#8 = EDGE_CURVE ( 'NONE', #149, #40, #105, .T. ) ;
#9 = CARTESIAN_POINT ( 'NONE',  ( 2.498001805406600200E-016, 1.221245327087670000E-015, 3.700000000000000200 ) ) ;
#10 = ORIENTED_EDGE ( 'NONE', *, *, #68, .F. ) ;
#11 = PRODUCT_DEFINITION_SHAPE ( 'NONE', 'NONE',  #70 ) ;
#12 = AXIS2_PLACEMENT_3D ( 'NONE', #77, #230, #182 ) ;
#13 = CARTESIAN_POINT ( 'NONE',  ( 1.988866053221346900, 6.420630926771448100, 1.524848158403366800 ) ) ;
#14 = CARTESIAN_POINT ( 'NONE',  ( 2.498001805406600200E-016, 1.221245327087670000E-015, 1.489538710429560100 ) ) ;
#15 = APPROVAL_ROLE ( '' ) ;
#16 = CARTESIAN_POINT ( 'NONE',  ( -6.630039529035663300, -2.304245033269826800, 1.017661919424969000 ) ) ;
#17 = APPLICATION_PROTOCOL_DEFINITION ( 'international standard', 'config_control_design', 1994, #95 ) ;
#18 = DIRECTION ( 'NONE',  ( 1.000000000000000000, 0.0000000000000000000, 0.0000000000000000000 ) ) ;
#19 = APPROVAL_ROLE ( '' ) ;
#20 = ORIENTED_EDGE ( 'NONE', *, *, #121, .F. ) ;
#21 = ORIENTED_EDGE ( 'NONE', *, *, #219, .T. ) ;
#22 = LOCAL_TIME ( 16, 53, 29.00000000000000000, #153 ) ;
#23 = AXIS2_PLACEMENT_3D ( 'NONE', #117, #156, #93 ) ;
#24 = MANIFOLD_SOLID_BREP ( 'Imported1', #123 ) ;
#25 = LOCAL_TIME ( 16, 53, 29.00000000000000000, #220 ) ;
#26 = ORIENTED_EDGE ( 'NONE', *, *, #128, .F. ) ;
#27 = AXIS2_PLACEMENT_3D ( 'NONE', #50, #46, #152 ) ;
#28 = CARTESIAN_POINT ( 'NONE',  ( -3.845478684958380300E-015, -2.304245033269829400, -0.5472396460044460800 ) ) ;
#29 = EDGE_LOOP ( 'NONE', ( #20, #63 ) ) ;
#30 = DATE_AND_TIME ( #104, #224 ) ;
#31 = CIRCLE ( 'NONE', #176, 6.349999999999999600 ) ;
#32 = CARTESIAN_POINT ( 'NONE',  ( 4.562089705907668600, 2.304245033269830300, -0.01613687141436355800 ) ) ;
#33 = DIRECTION ( 'NONE',  ( 1.000000000000000000, 0.0000000000000000000, 0.0000000000000000000 ) ) ;
#34 = LOCAL_TIME ( 16, 53, 29.00000000000000000, #86 ) ;
#35 = EDGE_CURVE ( 'NONE', #6, #149, #228, .T. ) ;
#36 = COORDINATED_UNIVERSAL_TIME_OFFSET ( 2, 0, .AHEAD. ) ;
#37 = CIRCLE ( 'NONE', #12, 6.349999999999999600 ) ;
#38 = APPLICATION_PROTOCOL_DEFINITION ( 'international standard', 'config_control_design', 1994, #126 ) ;
#39 = SECURITY_CLASSIFICATION ( '', '', #85 ) ;
#40 = VERTEX_POINT ( 'NONE', #90 ) ;
#41 = ORIENTED_EDGE ( 'NONE', *, *, #8, .T. ) ;
#42 = CALENDAR_DATE ( 2018, 13, 12 ) ;
#43 = VERTEX_POINT ( 'NONE', #132 ) ;
#44 = ADVANCED_FACE ( 'NONE', ( #163 ), #216, .T. ) ;
#45 = CARTESIAN_POINT ( 'NONE',  ( -4.437048698842603800E-015, -6.420630926771449000, 1.524848158403365500 ) ) ;
#46 = DIRECTION ( 'NONE',  ( 0.0000000000000000000, 0.0000000000000000000, 1.000000000000000000 ) ) ;
#47 = ORIENTED_EDGE ( 'NONE', *, *, #181, .F. ) ;
#48 = CC_DESIGN_PERSON_AND_ORGANIZATION_ASSIGNMENT ( #109, #82, ( #39 ) ) ;
#49 = CARTESIAN_POINT ( 'NONE',  ( -2.673243401452495100E-015, 2.304245033269831200, -0.5472396460044443000 ) ) ;
#50 = CARTESIAN_POINT ( 'NONE',  ( 2.498001805406600200E-016, 1.221245327087670000E-015, 1.489538710429560100 ) ) ;
#51 = DIRECTION ( 'NONE',  ( 0.0000000000000000000, 0.0000000000000000000, 1.000000000000000000 ) ) ;
#52 = PERSON_AND_ORGANIZATION_ROLE ( 'design_supplier' ) ;
#53 = ORIENTED_EDGE ( 'NONE', *, *, #219, .F. ) ;
#54 = DATE_TIME_ROLE ( 'classification_date' ) ;
#55 = ORIENTED_EDGE ( 'NONE', *, *, #78, .F. ) ;
#56 = CC_DESIGN_PERSON_AND_ORGANIZATION_ASSIGNMENT ( #5, #191, ( #187 ) ) ;
#57 = CC_DESIGN_DATE_AND_TIME_ASSIGNMENT ( #30, #54, ( #39 ) ) ;
#58 = CYLINDRICAL_SURFACE ( 'NONE', #27, 6.349999999999999600 ) ;
#59 = PERSON_AND_ORGANIZATION ( #210, #159 ) ;
#60 = CARTESIAN_POINT ( 'NONE',  ( 6.349999999999999600, 1.221245327087670000E-015, 1.489538710429560100 ) ) ;
#61 = ORIENTED_EDGE ( 'NONE', *, *, #160, .F. ) ;
#62 = DIRECTION ( 'NONE',  ( -0.0000000000000000000, -0.0000000000000000000, -1.000000000000000000 ) ) ;
#63 = ORIENTED_EDGE ( 'NONE', *, *, #8, .F. ) ;
#64 = DIRECTION ( 'NONE',  ( -0.0000000000000000000, -0.0000000000000000000, -1.000000000000000000 ) ) ;
#65 = DATE_AND_TIME ( #143, #169 ) ;
#66 = APPROVAL ( #214, 'UNSPECIFIED' ) ;
#67 = DATE_AND_TIME ( #147, #22 ) ;
#68 = EDGE_CURVE ( 'NONE', #194, #40, #71, .T. ) ;
#69 = CIRCLE ( 'NONE', #178, 14.27999999999999900 ) ;
#70 = PRODUCT_DEFINITION ( 'UNKNOWN', '', #102, #177 ) ;
#71 = LINE ( 'NONE', #139, #179 ) ;
#72 = APPROVAL ( #140, 'UNSPECIFIED' ) ;
#73 = CARTESIAN_POINT ( 'NONE',  ( -4.562089705907674800, -2.304245033269828500, -0.01613687141436160500 ) ) ;
#74 = CARTESIAN_POINT ( 'NONE',  ( -5.703499972189792500, -6.420630926771447200, 2.871056728626570900 ) ) ;
#75 = DIRECTION ( 'NONE',  ( -0.0000000000000000000, -0.0000000000000000000, -1.000000000000000000 ) ) ;
#76 = CC_DESIGN_PERSON_AND_ORGANIZATION_ASSIGNMENT ( #59, #2, ( #70 ) ) ;
#77 = CARTESIAN_POINT ( 'NONE',  ( 2.498001805406600200E-016, 1.221245327087670000E-015, 1.489538710429560100 ) ) ;
#78 = EDGE_CURVE ( 'NONE', #6, #97, #99, .T. ) ;
#79 = CARTESIAN_POINT ( 'NONE',  ( -7.806255641895633500E-015, -2.304245033269829000, -0.5472396460044447500 ) ) ;
#80 =( LENGTH_UNIT ( ) NAMED_UNIT ( * ) SI_UNIT ( .MILLI., .METRE. ) );
#81 = CARTESIAN_POINT ( 'NONE',  ( -2.311959431070532500, -2.304245033269828500, -0.5472396460044438600 ) ) ;
#82 = PERSON_AND_ORGANIZATION_ROLE ( 'classification_officer' ) ;
#83 = ADVANCED_BREP_SHAPE_REPRESENTATION ( '110-1106E UVFS pl-cx 12.7 F30', ( #24, #234 ), #202 ) ;
#84 = APPROVAL_DATE_TIME ( #173, #114 ) ;
#85 = SECURITY_CLASSIFICATION_LEVEL ( 'unclassified' ) ;
#86 = COORDINATED_UNIVERSAL_TIME_OFFSET ( 2, 0, .AHEAD. ) ;
#87 = DIRECTION ( 'NONE',  ( 1.000000000000000000, 0.0000000000000000000, 0.0000000000000000000 ) ) ;
#88 = AXIS2_PLACEMENT_3D ( 'NONE', #164, #115, #87 ) ;
#89 = ORIENTED_EDGE ( 'NONE', *, *, #181, .T. ) ;
#90 = CARTESIAN_POINT ( 'NONE',  ( 6.349999999999999600, 1.221245327087670000E-015, 3.700000000000000200 ) ) ;
#91 = ORIENTED_EDGE ( 'NONE', *, *, #121, .T. ) ;
#92 = CARTESIAN_POINT ( 'NONE',  ( 5.703499972189790800, 6.420630926771449900, 2.871056728626570500 ) ) ;
#93 = DIRECTION ( 'NONE',  ( 1.000000000000000000, 0.0000000000000000000, -0.0000000000000000000 ) ) ;
#94 = CC_DESIGN_APPROVAL ( #66, ( #39 ) ) ;
#95 = APPLICATION_CONTEXT ( 'configuration controlled 3d designs of mechanical parts and assemblies' ) ;
#96 = CARTESIAN_POINT ( 'NONE',  ( -7.806255641895631900E-015, -6.420630926771449000, 1.524848158403366400 ) ) ;
#97 = VERTEX_POINT ( 'NONE', #172 ) ;
#98 = CARTESIAN_POINT ( 'NONE',  ( -3.924543495829850800, 6.420630926771449900, 1.981729998524921900 ) ) ;
#99 = CIRCLE ( 'NONE', #131, 6.349999999999999600 ) ;
#100 = CARTESIAN_POINT ( 'NONE',  ( -4.562089705907672200, 2.304245033269833900, -0.01613687141436138900 ) ) ;
#101 = DIRECTION ( 'NONE',  ( 1.000000000000000000, 0.0000000000000000000, 0.0000000000000000000 ) ) ;
#102 = PRODUCT_DEFINITION_FORMATION_WITH_SPECIFIED_SOURCE ( 'ANY', '', #187, .NOT_KNOWN. ) ;
#103 = CARTESIAN_POINT ( 'NONE',  ( 2.498001805406600200E-016, 1.221245327087670000E-015, 1.489538710429560100 ) ) ;
#104 = CALENDAR_DATE ( 2018, 13, 12 ) ;
#105 = CIRCLE ( 'NONE', #88, 6.349999999999999600 ) ;
#106 = ORIENTED_EDGE ( 'NONE', *, *, #160, .T. ) ;
#107 = AXIS2_PLACEMENT_3D ( 'NONE', #207, #185, #137 ) ;
#108 = FACE_OUTER_BOUND ( 'NONE', #29, .T. ) ;
#109 = PERSON_AND_ORGANIZATION ( #210, #159 ) ;
#110 = CYLINDRICAL_SURFACE ( 'NONE', #225, 6.349999999999999600 ) ;
#111 = CARTESIAN_POINT ( 'NONE',  ( 5.703499972189789900, -6.420630926771449900, 2.871056728626569100 ) ) ;
#112 = CARTESIAN_POINT ( 'NONE',  ( 4.562089705907668600, -2.304245033269830300, -0.01613687141436507400 ) ) ;
#113 = PERSON_AND_ORGANIZATION ( #210, #159 ) ;
#114 = APPROVAL ( #174, 'UNSPECIFIED' ) ;
#115 = DIRECTION ( 'NONE',  ( -0.0000000000000000000, -0.0000000000000000000, -1.000000000000000000 ) ) ;
#116 = PERSON_AND_ORGANIZATION ( #210, #159 ) ;
#117 = CARTESIAN_POINT ( 'NONE',  ( 0.0000000000000000000, 13.15799999999999900, 3.700000000000000200 ) ) ;
#118 = ORIENTED_EDGE ( 'NONE', *, *, #128, .T. ) ;
#119 = CARTESIAN_POINT ( 'NONE',  ( 6.630039529035661500, 2.304245033269829900, 1.017661919424968800 ) ) ;
#120 = CARTESIAN_POINT ( 'NONE',  ( -1.170690301163803600E-015, 6.420630926771450800, 1.524848158403367300 ) ) ;
#121 = EDGE_CURVE ( 'NONE', #40, #149, #209, .T. ) ;
#122 = CARTESIAN_POINT ( 'NONE',  ( 0.0000000000000000000, 8.881784197001250400E-016, 14.27999999999999900 ) ) ;
#123 = CLOSED_SHELL ( 'NONE', ( #44, #144, #196, #180, #161 ) ) ;
#124 = MECHANICAL_CONTEXT ( 'NONE', #95, 'mechanical' ) ;
#125 = APPROVAL_DATE_TIME ( #217, #72 ) ;
#126 = APPLICATION_CONTEXT ( 'configuration controlled 3d designs of mechanical parts and assemblies' ) ;
#127 = CARTESIAN_POINT ( 'NONE',  ( -4.336808689942017700E-015, 6.420630926771450800, 1.524848158403367300 ) ) ;
#128 = EDGE_CURVE ( 'NONE', #43, #97, #69, .T. ) ;
#129 = CALENDAR_DATE ( 2018, 13, 12 ) ;
#130 =( BOUNDED_SURFACE ( )  B_SPLINE_SURFACE ( 3, 3, ( 
 ( #74, #171, #186, #96 ),
 ( #16, #73, #81, #79 ),
 ( #213, #100, #211, #1 ),
 ( #188, #98, #232, #127 ) ),
 .UNSPECIFIED., .F., .F., .F. ) 
 B_SPLINE_SURFACE_WITH_KNOTS ( ( 4, 4 ),
 ( 4, 4 ),
 ( 0.0000000000000000000, 1.000000000000000000 ),
 ( 0.0000000000000000000, 1.000000000000000000 ),
 .UNSPECIFIED. ) 
 GEOMETRIC_REPRESENTATION_ITEM ( )  RATIONAL_B_SPLINE_SURFACE ( (
 ( 1.000000000000000000, 0.9821712107336427700, 0.9821712107336427700, 1.000000000000000000),
 ( 0.9288119440521304100, 0.9122523516335494500, 0.9122523516335494500, 0.9288119440521304100),
 ( 0.9288119440521304100, 0.9122523516335494500, 0.9122523516335494500, 0.9288119440521304100),
 ( 1.000000000000000000, 0.9821712107336427700, 0.9821712107336427700, 1.000000000000000000) ) ) 
 REPRESENTATION_ITEM ( '' )  SURFACE ( )  );
#131 = AXIS2_PLACEMENT_3D ( 'NONE', #168, #75, #33 ) ;
#132 = CARTESIAN_POINT ( 'NONE',  ( -4.426844525111578000E-015, -6.350000000000001400, 1.489538710429559700 ) ) ;
#133 = CARTESIAN_POINT ( 'NONE',  ( 6.630039529035661500, -2.304245033269830800, 1.017661919424967400 ) ) ;
#134 = CARTESIAN_POINT ( 'NONE',  ( 2.311959431070525800, 2.304245033269830800, -0.5472396460044450800 ) ) ;
#135 = DIRECTION ( 'NONE',  ( 1.000000000000000000, -2.543642856077740100E-016, -2.198225105293790000E-016 ) ) ;
#136 = FACE_OUTER_BOUND ( 'NONE', #4, .T. ) ;
#137 = DIRECTION ( 'NONE',  ( 1.000000000000000000, 8.881784197001252300E-016, 0.0000000000000000000 ) ) ;
#138 = PERSON_AND_ORGANIZATION_ROLE ( 'creator' ) ;
#139 = CARTESIAN_POINT ( 'NONE',  ( 6.349999999999999600, 1.221245327087670000E-015, 1.489538710429560100 ) ) ;
#140 = APPROVAL_STATUS ( 'not_yet_approved' ) ;
#141 = CC_DESIGN_PERSON_AND_ORGANIZATION_ASSIGNMENT ( #146, #138, ( #102 ) ) ;
#142 =( NAMED_UNIT ( * ) SI_UNIT ( $, .STERADIAN. ) SOLID_ANGLE_UNIT ( ) );
#143 = CALENDAR_DATE ( 2018, 13, 12 ) ;
#144 = ADVANCED_FACE ( 'NONE', ( #136 ), #110, .T. ) ;
#145 = AXIS2_PLACEMENT_3D ( 'NONE', #9, #64, #155 ) ;
#146 = PERSON_AND_ORGANIZATION ( #210, #159 ) ;
#147 = CALENDAR_DATE ( 2018, 13, 12 ) ;
#148 = ORIENTED_EDGE ( 'NONE', *, *, #35, .T. ) ;
#149 = VERTEX_POINT ( 'NONE', #183 ) ;
#150 = CC_DESIGN_PERSON_AND_ORGANIZATION_ASSIGNMENT ( #116, #52, ( #102 ) ) ;
#151 = CARTESIAN_POINT ( 'NONE',  ( -6.349999999999999600, 1.998896044546239400E-015, 1.489538710429560100 ) ) ;
#152 = DIRECTION ( 'NONE',  ( 1.000000000000000000, 0.0000000000000000000, 0.0000000000000000000 ) ) ;
#153 = COORDINATED_UNIVERSAL_TIME_OFFSET ( 2, 0, .AHEAD. ) ;
#154 = DIRECTION ( 'NONE',  ( 0.0000000000000000000, 0.0000000000000000000, 1.000000000000000000 ) ) ;
#155 = DIRECTION ( 'NONE',  ( 1.000000000000000000, 0.0000000000000000000, 0.0000000000000000000 ) ) ;
#156 = DIRECTION ( 'NONE',  ( 0.0000000000000000000, 0.0000000000000000000, 1.000000000000000000 ) ) ;
#157 = FACE_OUTER_BOUND ( 'NONE', #199, .T. ) ;
#158 = DATE_TIME_ROLE ( 'creation_date' ) ;
#159 = ORGANIZATION ( 'UNSPECIFIED', 'UNSPECIFIED', '' ) ;
#160 = EDGE_CURVE ( 'NONE', #97, #194, #195, .T. ) ;
#161 = ADVANCED_FACE ( 'NONE', ( #108 ), #208, .T. ) ;
#162 = APPROVAL_PERSON_ORGANIZATION ( #200, #114, #231 ) ;
#163 = FACE_OUTER_BOUND ( 'NONE', #189, .T. ) ;
#164 = CARTESIAN_POINT ( 'NONE',  ( 2.498001805406600200E-016, 1.221245327087670000E-015, 3.700000000000000200 ) ) ;
#165 = CARTESIAN_POINT ( 'NONE',  ( 1.988866053221344700, -6.420630926771448100, 1.524848158403365300 ) ) ;
#166 = DIRECTION ( 'NONE',  ( 0.0000000000000000000, 0.0000000000000000000, 1.000000000000000000 ) ) ;
#167 = CC_DESIGN_APPROVAL ( #72, ( #70 ) ) ;
#168 = CARTESIAN_POINT ( 'NONE',  ( 2.498001805406600200E-016, 1.221245327087670000E-015, 1.489538710429560100 ) ) ;
#169 = LOCAL_TIME ( 16, 53, 29.00000000000000000, #7 ) ;
#170 = ORIENTED_EDGE ( 'NONE', *, *, #35, .F. ) ;
#171 = CARTESIAN_POINT ( 'NONE',  ( -3.924543495829856200, -6.420630926771446300, 1.981729998524921900 ) ) ;
#172 = CARTESIAN_POINT ( 'NONE',  ( -1.196418097892846800E-015, 6.350000000000003200, 1.489538710429560500 ) ) ;
#173 = DATE_AND_TIME ( #42, #25 ) ;
#174 = APPROVAL_STATUS ( 'not_yet_approved' ) ;
#175 = SHAPE_DEFINITION_REPRESENTATION ( #11, #83 ) ;
#176 = AXIS2_PLACEMENT_3D ( 'NONE', #103, #62, #101 ) ;
#177 = DESIGN_CONTEXT ( 'detailed design', #126, 'design' ) ;
#178 = AXIS2_PLACEMENT_3D ( 'NONE', #122, #135, #203 ) ;
#179 = VECTOR ( 'NONE', #51, 1000.000000000000000 ) ;
#180 = ADVANCED_FACE ( 'NONE', ( #157 ), #58, .T. ) ;
#181 = EDGE_CURVE ( 'NONE', #43, #6, #37, .T. ) ;
#182 = DIRECTION ( 'NONE',  ( 1.000000000000000000, 0.0000000000000000000, 0.0000000000000000000 ) ) ;
#183 = CARTESIAN_POINT ( 'NONE',  ( -6.349999999999999600, 1.998896044546239400E-015, 3.700000000000000200 ) ) ;
#184 = ORIENTED_EDGE ( 'NONE', *, *, #68, .T. ) ;
#185 = DIRECTION ( 'NONE',  ( -0.0000000000000000000, -0.0000000000000000000, -1.000000000000000000 ) ) ;
#186 = CARTESIAN_POINT ( 'NONE',  ( -1.988866053221352700, -6.420630926771446300, 1.524848158403367100 ) ) ;
#187 = PRODUCT ( '110-1106E UVFS pl-cx 12.7 F30', '110-1106E UVFS pl-cx 12.7 F30', '', ( #124 ) ) ;
#188 = CARTESIAN_POINT ( 'NONE',  ( -5.703499972189788100, 6.420630926771452500, 2.871056728626570900 ) ) ;
#189 = EDGE_LOOP ( 'NONE', ( #21, #118, #106 ) ) ;
#190 = PERSON_AND_ORGANIZATION ( #210, #159 ) ;
#191 = PERSON_AND_ORGANIZATION_ROLE ( 'design_owner' ) ;
#192 = VECTOR ( 'NONE', #166, 1000.000000000000000 ) ;
#193 = CC_DESIGN_DATE_AND_TIME_ASSIGNMENT ( #67, #158, ( #70 ) ) ;
#194 = VERTEX_POINT ( 'NONE', #60 ) ;
#195 = CIRCLE ( 'NONE', #107, 6.349999999999999600 ) ;
#196 = ADVANCED_FACE ( 'NONE', ( #218 ), #130, .T. ) ;
#197 = CC_DESIGN_SECURITY_CLASSIFICATION ( #39, ( #102 ) ) ;
#198 = CARTESIAN_POINT ( 'NONE',  ( 3.924543495829849500, -6.420630926771448100, 1.981729998524918200 ) ) ;
#199 = EDGE_LOOP ( 'NONE', ( #170, #47, #53, #184, #91 ) ) ;
#200 = PERSON_AND_ORGANIZATION ( #210, #159 ) ;
#201 = CARTESIAN_POINT ( 'NONE',  ( -6.349999999999999600, 1.998896044546239400E-015, 1.489538710429560100 ) ) ;
#202 =( GEOMETRIC_REPRESENTATION_CONTEXT ( 3 ) GLOBAL_UNCERTAINTY_ASSIGNED_CONTEXT ( ( #222 ) ) GLOBAL_UNIT_ASSIGNED_CONTEXT ( ( #80, #233, #142 ) ) REPRESENTATION_CONTEXT ( 'NONE', 'WORKASPACE' ) );
#203 = DIRECTION ( 'NONE',  ( -2.543642856077739600E-016, -1.000000000000000000, 2.429584700247629200E-016 ) ) ;
#204 = APPROVAL_PERSON_ORGANIZATION ( #190, #66, #19 ) ;
#205 = CARTESIAN_POINT ( 'NONE',  ( 0.0000000000000000000, 0.0000000000000000000, 0.0000000000000000000 ) ) ;
#206 = CC_DESIGN_APPROVAL ( #114, ( #102 ) ) ;
#207 = CARTESIAN_POINT ( 'NONE',  ( 2.498001805406600200E-016, 1.221245327087670000E-015, 1.489538710429560100 ) ) ;
#208 = PLANE ( 'NONE',  #23 ) ;
#209 = CIRCLE ( 'NONE', #145, 6.349999999999999600 ) ;
#210 = PERSON ( 'UNSPECIFIED', 'UNSPECIFIED', 'UNSPECIFIED', ('UNSPECIFIED'), ('UNSPECIFIED'), ('UNSPECIFIED') ) ;
#211 = CARTESIAN_POINT ( 'NONE',  ( -2.311959431070530700, 2.304245033269832100, -0.5472396460044429700 ) ) ;
#212 = PRODUCT_RELATED_PRODUCT_CATEGORY ( 'detail', '', ( #187 ) ) ;
#213 = CARTESIAN_POINT ( 'NONE',  ( -6.630039529035660600, 2.304245033269833000, 1.017661919424969400 ) ) ;
#214 = APPROVAL_STATUS ( 'not_yet_approved' ) ;
#215 = APPROVAL_DATE_TIME ( #65, #66 ) ;
#216 =( BOUNDED_SURFACE ( )  B_SPLINE_SURFACE ( 3, 3, ( 
 ( #45, #165, #198, #111 ),
 ( #28, #223, #112, #133 ),
 ( #49, #134, #32, #119 ),
 ( #120, #13, #227, #92 ) ),
 .UNSPECIFIED., .F., .F., .F. ) 
 B_SPLINE_SURFACE_WITH_KNOTS ( ( 4, 4 ),
 ( 4, 4 ),
 ( 0.0000000000000000000, 1.000000000000000000 ),
 ( 0.0000000000000000000, 1.000000000000000000 ),
 .UNSPECIFIED. ) 
 GEOMETRIC_REPRESENTATION_ITEM ( )  RATIONAL_B_SPLINE_SURFACE ( (
 ( 1.000000000000000000, 0.9821712107336427700, 0.9821712107336427700, 1.000000000000000000),
 ( 0.9288119440521304100, 0.9122523516335494500, 0.9122523516335494500, 0.9288119440521304100),
 ( 0.9288119440521304100, 0.9122523516335494500, 0.9122523516335494500, 0.9288119440521304100),
 ( 1.000000000000000000, 0.9821712107336427700, 0.9821712107336427700, 1.000000000000000000) ) ) 
 REPRESENTATION_ITEM ( '' )  SURFACE ( )  );
#217 = DATE_AND_TIME ( #129, #34 ) ;
#218 = FACE_OUTER_BOUND ( 'NONE', #3, .T. ) ;
#219 = EDGE_CURVE ( 'NONE', #194, #43, #31, .T. ) ;
#220 = COORDINATED_UNIVERSAL_TIME_OFFSET ( 2, 0, .AHEAD. ) ;
#221 = APPROVAL_PERSON_ORGANIZATION ( #113, #72, #15 ) ;
#222 = UNCERTAINTY_MEASURE_WITH_UNIT (LENGTH_MEASURE( 1.000000000000000100E-005 ), #80, 'distance_accuracy_value', 'NONE');
#223 = CARTESIAN_POINT ( 'NONE',  ( 2.311959431070525400, -2.304245033269829900, -0.5472396460044467400 ) ) ;
#224 = LOCAL_TIME ( 16, 53, 29.00000000000000000, #36 ) ;
#225 = AXIS2_PLACEMENT_3D ( 'NONE', #14, #154, #226 ) ;
#226 = DIRECTION ( 'NONE',  ( 1.000000000000000000, 0.0000000000000000000, 0.0000000000000000000 ) ) ;
#227 = CARTESIAN_POINT ( 'NONE',  ( 3.924543495829850800, 6.420630926771448100, 1.981729998524919900 ) ) ;
#228 = LINE ( 'NONE', #151, #192 ) ;
#229 = DIRECTION ( 'NONE',  ( 0.0000000000000000000, 0.0000000000000000000, 1.000000000000000000 ) ) ;
#230 = DIRECTION ( 'NONE',  ( -0.0000000000000000000, -0.0000000000000000000, -1.000000000000000000 ) ) ;
#231 = APPROVAL_ROLE ( '' ) ;
#232 = CARTESIAN_POINT ( 'NONE',  ( -1.988866053221348200, 6.420630926771449900, 1.524848158403367700 ) ) ;
#233 =( NAMED_UNIT ( * ) PLANE_ANGLE_UNIT ( ) SI_UNIT ( $, .RADIAN. ) );
#234 = AXIS2_PLACEMENT_3D ( 'NONE', #205, #229, #18 ) ;
#235 = ORIENTED_EDGE ( 'NONE', *, *, #78, .T. ) ;
ENDSEC;
END-ISO-10303-21;
