ISO-10303-21;
HEADER;
FILE_DESCRIPTION (( 'STEP AP203' ),
    '1' );
FILE_NAME ('110-1105E UVFS pl-cx 12.7 F25.STEP',
    '2018-12-13T14:38:03',
    ( '' ),
    ( '' ),
    'SwSTEP 2.0',
    'SolidWorks 2017',
    '' );
FILE_SCHEMA (( 'CONFIG_CONTROL_DESIGN' ));
ENDSEC;

DATA;
#1 = AXIS2_PLACEMENT_3D ( 'NONE', #54, #141, #50 ) ;
#2 = CARTESIAN_POINT ( 'NONE',  ( -6.349999999999999600, 1.998896044546239400E-015, 1.835830883773859900 ) ) ;
#3 = DIRECTION ( 'NONE',  ( 0.0000000000000000000, 0.0000000000000000000, 1.000000000000000000 ) ) ;
#4 = CC_DESIGN_PERSON_AND_ORGANIZATION_ASSIGNMENT ( #38, #57, ( #27 ) ) ;
#5 = CARTESIAN_POINT ( 'NONE',  ( -1.917171331798034100, 6.417832148303632200, 1.878950627993077200 ) ) ;
#6 = CARTESIAN_POINT ( 'NONE',  ( -2.664535259100380000E-015, -2.390957562834719900, -0.7000013572153861400 ) ) ;
#7 = ORIENTED_EDGE ( 'NONE', *, *, #60, .F. ) ;
#8 = CARTESIAN_POINT ( 'NONE',  ( 1.917171331798025700, 6.417832148303632200, 1.878950627993076500 ) ) ;
#9 = PERSON ( 'UNSPECIFIED', 'UNSPECIFIED', 'UNSPECIFIED', ('UNSPECIFIED'), ('UNSPECIFIED'), ('UNSPECIFIED') ) ;
#10 = CALENDAR_DATE ( 2018, 13, 12 ) ;
#11 = ORIENTED_EDGE ( 'NONE', *, *, #202, .F. ) ;
#12 = APPROVAL_STATUS ( 'not_yet_approved' ) ;
#13 =( BOUNDED_SURFACE ( )  B_SPLINE_SURFACE ( 3, 3, ( 
 ( #85, #84, #203, #219 ),
 ( #43, #136, #220, #235 ),
 ( #183, #64, #167, #109 ),
 ( #228, #157, #5, #192 ) ),
 .UNSPECIFIED., .F., .F., .F. ) 
 B_SPLINE_SURFACE_WITH_KNOTS ( ( 4, 4 ),
 ( 4, 4 ),
 ( 0.0000000000000000000, 1.000000000000000000 ),
 ( 0.0000000000000000000, 1.000000000000000000 ),
 .UNSPECIFIED. ) 
 GEOMETRIC_REPRESENTATION_ITEM ( )  RATIONAL_B_SPLINE_SURFACE ( (
 ( 1.000000000000000000, 0.9734585911933327800, 0.9734585911933327800, 1.000000000000000000),
 ( 0.8947366594961861900, 0.8709890880421861100, 0.8709890880421861100, 0.8947366594961861900),
 ( 0.8947366594961861900, 0.8709890880421861100, 0.8709890880421861100, 0.8947366594961861900),
 ( 1.000000000000000000, 0.9734585911933327800, 0.9734585911933327800, 1.000000000000000000) ) ) 
 REPRESENTATION_ITEM ( '' )  SURFACE ( )  );
#14 = EDGE_CURVE ( 'NONE', #119, #96, #150, .T. ) ;
#15 =( LENGTH_UNIT ( ) NAMED_UNIT ( * ) SI_UNIT ( .MILLI., .METRE. ) );
#16 = CARTESIAN_POINT ( 'NONE',  ( 2.498001805406600200E-016, 1.221245327087670000E-015, 1.835830883773859900 ) ) ;
#17 = DIRECTION ( 'NONE',  ( -0.0000000000000000000, -0.0000000000000000000, -1.000000000000000000 ) ) ;
#18 = DIRECTION ( 'NONE',  ( 1.000000000000000000, 0.0000000000000000000, -0.0000000000000000000 ) ) ;
#19 = DIRECTION ( 'NONE',  ( -0.0000000000000000000, -0.0000000000000000000, -1.000000000000000000 ) ) ;
#20 = APPROVAL ( #12, 'UNSPECIFIED' ) ;
#21 = FACE_OUTER_BOUND ( 'NONE', #140, .T. ) ;
#22 = FACE_OUTER_BOUND ( 'NONE', #185, .T. ) ;
#23 = CC_DESIGN_SECURITY_CLASSIFICATION ( #149, ( #170 ) ) ;
#24 = CARTESIAN_POINT ( 'NONE',  ( 6.759479824820190600, 2.390957562834714200, 1.266587250572920100 ) ) ;
#25 = PERSON_AND_ORGANIZATION ( #9, #69 ) ;
#26 = VERTEX_POINT ( 'NONE', #41 ) ;
#27 = PRODUCT ( '110-1105E UVFS pl-cx 12.7 F25', '110-1105E UVFS pl-cx 12.7 F25', '', ( #144 ) ) ;
#28 = CARTESIAN_POINT ( 'NONE',  ( -2.664535259100380000E-015, 2.390957562834715900, -0.7000013572153865900 ) ) ;
#29 = DIRECTION ( 'NONE',  ( 0.0000000000000000000, -1.000000000000000000, -5.831003280594309600E-016 ) ) ;
#30 = EDGE_CURVE ( 'NONE', #210, #26, #159, .T. ) ;
#31 = APPLICATION_PROTOCOL_DEFINITION ( 'international standard', 'config_control_design', 1994, #232 ) ;
#32 = ADVANCED_FACE ( 'NONE', ( #102 ), #115, .T. ) ;
#33 = COORDINATED_UNIVERSAL_TIME_OFFSET ( 2, 0, .AHEAD. ) ;
#34 = APPROVAL_ROLE ( '' ) ;
#35 = APPROVAL_DATE_TIME ( #196, #20 ) ;
#36 = PERSON_AND_ORGANIZATION_ROLE ( 'classification_officer' ) ;
#37 = APPROVAL_ROLE ( '' ) ;
#38 = PERSON_AND_ORGANIZATION ( #9, #69 ) ;
#39 = ORIENTED_EDGE ( 'NONE', *, *, #165, .F. ) ;
#40 = AXIS2_PLACEMENT_3D ( 'NONE', #225, #52, #173 ) ;
#41 = CARTESIAN_POINT ( 'NONE',  ( -6.349999999999999600, 1.998896044546239400E-015, 4.000000000000000000 ) ) ;
#42 = PERSON_AND_ORGANIZATION ( #9, #69 ) ;
#43 = CARTESIAN_POINT ( 'NONE',  ( -6.759479824820197700, -2.390957562834721300, 1.266587250572922500 ) ) ;
#44 = CIRCLE ( 'NONE', #40, 6.349999999999999600 ) ;
#45 = ORIENTED_EDGE ( 'NONE', *, *, #227, .F. ) ;
#46 = PRODUCT_RELATED_PRODUCT_CATEGORY ( 'detail', '', ( #27 ) ) ;
#47 = AXIS2_PLACEMENT_3D ( 'NONE', #108, #142, #29 ) ;
#48 = APPROVAL_DATE_TIME ( #97, #120 ) ;
#49 = CIRCLE ( 'NONE', #1, 6.349999999999999600 ) ;
#50 = DIRECTION ( 'NONE',  ( 1.000000000000000000, 0.0000000000000000000, 0.0000000000000000000 ) ) ;
#51 = LOCAL_TIME ( 16, 38, 2.000000000000000000, #234 ) ;
#52 = DIRECTION ( 'NONE',  ( -0.0000000000000000000, -0.0000000000000000000, -1.000000000000000000 ) ) ;
#53 = AXIS2_PLACEMENT_3D ( 'NONE', #194, #191, #155 ) ;
#54 = CARTESIAN_POINT ( 'NONE',  ( 2.498001805406600200E-016, 1.221245327087670000E-015, 1.835830883773859900 ) ) ;
#55 = DIRECTION ( 'NONE',  ( 0.0000000000000000000, 0.0000000000000000000, 1.000000000000000000 ) ) ;
#56 = CALENDAR_DATE ( 2018, 13, 12 ) ;
#57 = PERSON_AND_ORGANIZATION_ROLE ( 'design_owner' ) ;
#58 = ADVANCED_FACE ( 'NONE', ( #124 ), #201, .T. ) ;
#59 = APPROVAL_PERSON_ORGANIZATION ( #224, #193, #77 ) ;
#60 = EDGE_CURVE ( 'NONE', #87, #119, #79, .T. ) ;
#61 = ADVANCED_FACE ( 'NONE', ( #22 ), #13, .T. ) ;
#62 = ORIENTED_EDGE ( 'NONE', *, *, #106, .F. ) ;
#63 = DIRECTION ( 'NONE',  ( 0.0000000000000000000, 0.0000000000000000000, 1.000000000000000000 ) ) ;
#64 = CARTESIAN_POINT ( 'NONE',  ( -4.725154543545338400, 2.390957562834715100, -0.02659876787068334000 ) ) ;
#65 = DIRECTION ( 'NONE',  ( 1.000000000000000000, -8.881784197001252300E-016, 0.0000000000000000000 ) ) ;
#66 = EDGE_LOOP ( 'NONE', ( #7, #163, #121, #45, #226 ) ) ;
#67 = AXIS2_PLACEMENT_3D ( 'NONE', #16, #63, #151 ) ;
#68 = CC_DESIGN_PERSON_AND_ORGANIZATION_ASSIGNMENT ( #25, #214, ( #170 ) ) ;
#69 = ORGANIZATION ( 'UNSPECIFIED', 'UNSPECIFIED', '' ) ;
#70 = CARTESIAN_POINT ( 'NONE',  ( 1.917171331798024300, -6.417832148303636700, 1.878950627993076500 ) ) ;
#71 = CARTESIAN_POINT ( 'NONE',  ( -2.664535259100380000E-015, -6.417832148303636700, 1.878950627993076800 ) ) ;
#72 = CARTESIAN_POINT ( 'NONE',  ( -6.349999999999999600, 1.998896044546239400E-015, 1.835830883773859900 ) ) ;
#73 = VERTEX_POINT ( 'NONE', #156 ) ;
#74 = CARTESIAN_POINT ( 'NONE',  ( -2.664535259100380000E-015, 6.417832148303631400, 1.878950627993076800 ) ) ;
#75 = EDGE_CURVE ( 'NONE', #87, #26, #126, .T. ) ;
#76 = APPLICATION_PROTOCOL_DEFINITION ( 'international standard', 'config_control_design', 1994, #178 ) ;
#77 = APPROVAL_ROLE ( '' ) ;
#78 = CARTESIAN_POINT ( 'NONE',  ( 2.498001805406600200E-016, 1.221245327087670000E-015, 1.835830883773859900 ) ) ;
#79 = CIRCLE ( 'NONE', #99, 6.349999999999999600 ) ;
#80 = CC_DESIGN_APPROVAL ( #20, ( #110 ) ) ;
#81 = DIRECTION ( 'NONE',  ( 1.000000000000000000, 1.776356839400250500E-015, 0.0000000000000000000 ) ) ;
#82 = VECTOR ( 'NONE', #55, 1000.000000000000000 ) ;
#83 = CC_DESIGN_APPROVAL ( #120, ( #149 ) ) ;
#84 = CARTESIAN_POINT ( 'NONE',  ( -3.758016021491548100, -6.417832148303636700, 2.414522046102188100 ) ) ;
#85 = CARTESIAN_POINT ( 'NONE',  ( -5.375958234704339300, -6.417832148303637600, 3.443020422460807400 ) ) ;
#86 = APPROVAL_DATE_TIME ( #184, #193 ) ;
#87 = VERTEX_POINT ( 'NONE', #72 ) ;
#88 = AXIS2_PLACEMENT_3D ( 'NONE', #78, #166, #81 ) ;
#89 = DATE_AND_TIME ( #158, #230 ) ;
#90 = CARTESIAN_POINT ( 'NONE',  ( 3.758016021491543700, 6.417832148303632200, 2.414522046102187200 ) ) ;
#91 = CARTESIAN_POINT ( 'NONE',  ( 3.758016021491540600, -6.417832148303636700, 2.414522046102186300 ) ) ;
#92 = APPROVAL_PERSON_ORGANIZATION ( #42, #20, #34 ) ;
#93 = EDGE_LOOP ( 'NONE', ( #143, #218 ) ) ;
#94 = CC_DESIGN_PERSON_AND_ORGANIZATION_ASSIGNMENT ( #190, #161, ( #110 ) ) ;
#95 = SHAPE_DEFINITION_REPRESENTATION ( #216, #207 ) ;
#96 = VERTEX_POINT ( 'NONE', #175 ) ;
#97 = DATE_AND_TIME ( #56, #138 ) ;
#98 = LINE ( 'NONE', #208, #112 ) ;
#99 = AXIS2_PLACEMENT_3D ( 'NONE', #117, #19, #65 ) ;
#100 = CARTESIAN_POINT ( 'NONE',  ( -2.664535259100380000E-015, 6.349999999999996100, 1.835830883773859700 ) ) ;
#101 = ORIENTED_EDGE ( 'NONE', *, *, #75, .F. ) ;
#102 = FACE_OUTER_BOUND ( 'NONE', #199, .T. ) ;
#103 = PERSON_AND_ORGANIZATION ( #9, #69 ) ;
#104 = DATE_AND_TIME ( #10, #168 ) ;
#105 = CARTESIAN_POINT ( 'NONE',  ( 6.349999999999999600, 1.221245327087670000E-015, 4.000000000000000000 ) ) ;
#106 = EDGE_CURVE ( 'NONE', #73, #119, #130, .T. ) ;
#107 = CARTESIAN_POINT ( 'NONE',  ( 2.410562056519610400, 2.390957562834715100, -0.7000013572153865900 ) ) ;
#108 = CARTESIAN_POINT ( 'NONE',  ( -2.664535259100380000E-015, -3.552713678800500100E-015, 11.90000000000000000 ) ) ;
#109 = CARTESIAN_POINT ( 'NONE',  ( -6.071532165918824000E-015, 2.390957562834715900, -0.7000013572153859200 ) ) ;
#110 = PRODUCT_DEFINITION ( 'UNKNOWN', '', #170, #206 ) ;
#111 =( NAMED_UNIT ( * ) SI_UNIT ( $, .STERADIAN. ) SOLID_ANGLE_UNIT ( ) );
#112 = VECTOR ( 'NONE', #3, 1000.000000000000000 ) ;
#113 = PERSON_AND_ORGANIZATION_ROLE ( 'design_supplier' ) ;
#114 = ADVANCED_FACE ( 'NONE', ( #21 ), #215, .T. ) ;
#115 = CYLINDRICAL_SURFACE ( 'NONE', #67, 6.349999999999999600 ) ;
#116 = CC_DESIGN_PERSON_AND_ORGANIZATION_ASSIGNMENT ( #123, #113, ( #170 ) ) ;
#117 = CARTESIAN_POINT ( 'NONE',  ( 2.498001805406600200E-016, 1.221245327087670000E-015, 1.835830883773859900 ) ) ;
#118 = CIRCLE ( 'NONE', #188, 6.349999999999999600 ) ;
#119 = VERTEX_POINT ( 'NONE', #100 ) ;
#120 = APPROVAL ( #129, 'UNSPECIFIED' ) ;
#121 = ORIENTED_EDGE ( 'NONE', *, *, #222, .T. ) ;
#122 = CARTESIAN_POINT ( 'NONE',  ( 6.759479824820188800, -2.390957562834721700, 1.266587250572920100 ) ) ;
#123 = PERSON_AND_ORGANIZATION ( #9, #69 ) ;
#124 = FACE_OUTER_BOUND ( 'NONE', #93, .T. ) ;
#125 = CARTESIAN_POINT ( 'NONE',  ( 5.375958234704330400, -6.417832148303637600, 3.443020422460805200 ) ) ;
#126 = LINE ( 'NONE', #2, #82 ) ;
#127 = DIRECTION ( 'NONE',  ( 1.000000000000000000, 0.0000000000000000000, 0.0000000000000000000 ) ) ;
#128 = ADVANCED_FACE ( 'NONE', ( #139 ), #209, .T. ) ;
#129 = APPROVAL_STATUS ( 'not_yet_approved' ) ;
#130 = CIRCLE ( 'NONE', #47, 11.90000000000000000 ) ;
#131 = ORIENTED_EDGE ( 'NONE', *, *, #165, .T. ) ;
#132 = CC_DESIGN_DATE_AND_TIME_ASSIGNMENT ( #104, #145, ( #110 ) ) ;
#133 = CALENDAR_DATE ( 2018, 13, 12 ) ;
#134 = CARTESIAN_POINT ( 'NONE',  ( 2.498001805406600200E-016, 1.221245327087670000E-015, 4.000000000000000000 ) ) ;
#135 = DIRECTION ( 'NONE',  ( 0.0000000000000000000, 0.0000000000000000000, 1.000000000000000000 ) ) ;
#136 = CARTESIAN_POINT ( 'NONE',  ( -4.725154543545338400, -2.390957562834720800, -0.02659876787068356200 ) ) ;
#137 = ORIENTED_EDGE ( 'NONE', *, *, #30, .T. ) ;
#138 = LOCAL_TIME ( 16, 38, 2.000000000000000000, #33 ) ;
#139 = FACE_OUTER_BOUND ( 'NONE', #66, .T. ) ;
#140 = EDGE_LOOP ( 'NONE', ( #131, #187, #195 ) ) ;
#141 = DIRECTION ( 'NONE',  ( -0.0000000000000000000, -0.0000000000000000000, -1.000000000000000000 ) ) ;
#142 = DIRECTION ( 'NONE',  ( 1.000000000000000000, 0.0000000000000000000, 0.0000000000000000000 ) ) ;
#143 = ORIENTED_EDGE ( 'NONE', *, *, #30, .F. ) ;
#144 = MECHANICAL_CONTEXT ( 'NONE', #178, 'mechanical' ) ;
#145 = DATE_TIME_ROLE ( 'creation_date' ) ;
#146 = AXIS2_PLACEMENT_3D ( 'NONE', #148, #229, #127 ) ;
#147 = DATE_TIME_ROLE ( 'classification_date' ) ;
#148 = CARTESIAN_POINT ( 'NONE',  ( 0.0000000000000000000, 0.0000000000000000000, 0.0000000000000000000 ) ) ;
#149 = SECURITY_CLASSIFICATION ( '', '', #217 ) ;
#150 = CIRCLE ( 'NONE', #88, 6.349999999999999600 ) ;
#151 = DIRECTION ( 'NONE',  ( 1.000000000000000000, 0.0000000000000000000, 0.0000000000000000000 ) ) ;
#152 = DIRECTION ( 'NONE',  ( 1.000000000000000000, 0.0000000000000000000, 0.0000000000000000000 ) ) ;
#153 = CC_DESIGN_PERSON_AND_ORGANIZATION_ASSIGNMENT ( #233, #36, ( #149 ) ) ;
#154 = COORDINATED_UNIVERSAL_TIME_OFFSET ( 2, 0, .AHEAD. ) ;
#155 = DIRECTION ( 'NONE',  ( 1.000000000000000000, 0.0000000000000000000, 0.0000000000000000000 ) ) ;
#156 = CARTESIAN_POINT ( 'NONE',  ( -2.664535259100380000E-015, -6.349999999999998800, 1.835830883773859700 ) ) ;
#157 = CARTESIAN_POINT ( 'NONE',  ( -3.758016021491551200, 6.417832148303632200, 2.414522046102189000 ) ) ;
#158 = CALENDAR_DATE ( 2018, 13, 12 ) ;
#159 = CIRCLE ( 'NONE', #177, 6.349999999999999600 ) ;
#160 = CARTESIAN_POINT ( 'NONE',  ( 2.410562056519609100, -2.390957562834720800, -0.7000013572153860300 ) ) ;
#161 = PERSON_AND_ORGANIZATION_ROLE ( 'creator' ) ;
#162 = UNCERTAINTY_MEASURE_WITH_UNIT (LENGTH_MEASURE( 1.000000000000000100E-005 ), #15, 'distance_accuracy_value', 'NONE');
#163 = ORIENTED_EDGE ( 'NONE', *, *, #75, .T. ) ;
#164 =( NAMED_UNIT ( * ) PLANE_ANGLE_UNIT ( ) SI_UNIT ( $, .RADIAN. ) );
#165 = EDGE_CURVE ( 'NONE', #96, #73, #118, .T. ) ;
#166 = DIRECTION ( 'NONE',  ( -0.0000000000000000000, -0.0000000000000000000, -1.000000000000000000 ) ) ;
#167 = CARTESIAN_POINT ( 'NONE',  ( -2.410562056519618900, 2.390957562834715100, -0.7000013572153851400 ) ) ;
#168 = LOCAL_TIME ( 16, 38, 2.000000000000000000, #154 ) ;
#169 = ORIENTED_EDGE ( 'NONE', *, *, #60, .T. ) ;
#170 = PRODUCT_DEFINITION_FORMATION_WITH_SPECIFIED_SOURCE ( 'ANY', '', #27, .NOT_KNOWN. ) ;
#171 = COORDINATED_UNIVERSAL_TIME_OFFSET ( 2, 0, .AHEAD. ) ;
#172 = CARTESIAN_POINT ( 'NONE',  ( 4.725154543545330400, -2.390957562834721300, -0.02659876787068529700 ) ) ;
#173 = DIRECTION ( 'NONE',  ( 1.000000000000000000, 0.0000000000000000000, 0.0000000000000000000 ) ) ;
#174 = CLOSED_SHELL ( 'NONE', ( #114, #128, #61, #32, #58 ) ) ;
#175 = CARTESIAN_POINT ( 'NONE',  ( 6.349999999999999600, 1.221245327087670000E-015, 1.835830883773859900 ) ) ;
#176 = CARTESIAN_POINT ( 'NONE',  ( 4.725154543545331300, 2.390957562834715100, -0.02659876787068550500 ) ) ;
#177 = AXIS2_PLACEMENT_3D ( 'NONE', #134, #17, #152 ) ;
#178 = APPLICATION_CONTEXT ( 'configuration controlled 3d designs of mechanical parts and assemblies' ) ;
#179 = COORDINATED_UNIVERSAL_TIME_OFFSET ( 2, 0, .AHEAD. ) ;
#180 = ORIENTED_EDGE ( 'NONE', *, *, #227, .T. ) ;
#181 = APPROVAL_PERSON_ORGANIZATION ( #103, #120, #37 ) ;
#182 = CARTESIAN_POINT ( 'NONE',  ( 0.0000000000000000000, 13.15799999999999900, 4.000000000000000000 ) ) ;
#183 = CARTESIAN_POINT ( 'NONE',  ( -6.759479824820199500, 2.390957562834715100, 1.266587250572923200 ) ) ;
#184 = DATE_AND_TIME ( #231, #51 ) ;
#185 = EDGE_LOOP ( 'NONE', ( #62, #204, #169 ) ) ;
#186 =( GEOMETRIC_REPRESENTATION_CONTEXT ( 3 ) GLOBAL_UNCERTAINTY_ASSIGNED_CONTEXT ( ( #162 ) ) GLOBAL_UNIT_ASSIGNED_CONTEXT ( ( #15, #164, #111 ) ) REPRESENTATION_CONTEXT ( 'NONE', 'WORKASPACE' ) );
#187 = ORIENTED_EDGE ( 'NONE', *, *, #106, .T. ) ;
#188 = AXIS2_PLACEMENT_3D ( 'NONE', #211, #223, #213 ) ;
#189 = CARTESIAN_POINT ( 'NONE',  ( 5.375958234704334900, 6.417832148303630500, 3.443020422460806500 ) ) ;
#190 = PERSON_AND_ORGANIZATION ( #9, #69 ) ;
#191 = DIRECTION ( 'NONE',  ( 0.0000000000000000000, 0.0000000000000000000, 1.000000000000000000 ) ) ;
#192 = CARTESIAN_POINT ( 'NONE',  ( -5.204170427930421300E-015, 6.417832148303631400, 1.878950627993077000 ) ) ;
#193 = APPROVAL ( #197, 'UNSPECIFIED' ) ;
#194 = CARTESIAN_POINT ( 'NONE',  ( 2.498001805406600200E-016, 1.221245327087670000E-015, 1.835830883773859900 ) ) ;
#195 = ORIENTED_EDGE ( 'NONE', *, *, #14, .T. ) ;
#196 = DATE_AND_TIME ( #133, #221 ) ;
#197 = APPROVAL_STATUS ( 'not_yet_approved' ) ;
#198 = AXIS2_PLACEMENT_3D ( 'NONE', #182, #135, #18 ) ;
#199 = EDGE_LOOP ( 'NONE', ( #101, #11, #39, #180, #137 ) ) ;
#200 = MANIFOLD_SOLID_BREP ( 'Imported1', #174 ) ;
#201 = PLANE ( 'NONE',  #198 ) ;
#202 = EDGE_CURVE ( 'NONE', #73, #87, #49, .T. ) ;
#203 = CARTESIAN_POINT ( 'NONE',  ( -1.917171331798032600, -6.417832148303636700, 1.878950627993077200 ) ) ;
#204 = ORIENTED_EDGE ( 'NONE', *, *, #202, .T. ) ;
#205 = CC_DESIGN_APPROVAL ( #193, ( #170 ) ) ;
#206 = DESIGN_CONTEXT ( 'detailed design', #232, 'design' ) ;
#207 = ADVANCED_BREP_SHAPE_REPRESENTATION ( '110-1105E UVFS pl-cx 12.7 F25', ( #200, #146 ), #186 ) ;
#208 = CARTESIAN_POINT ( 'NONE',  ( 6.349999999999999600, 1.221245327087670000E-015, 1.835830883773859900 ) ) ;
#209 = CYLINDRICAL_SURFACE ( 'NONE', #53, 6.349999999999999600 ) ;
#210 = VERTEX_POINT ( 'NONE', #105 ) ;
#211 = CARTESIAN_POINT ( 'NONE',  ( 2.498001805406600200E-016, 1.221245327087670000E-015, 1.835830883773859900 ) ) ;
#212 = CC_DESIGN_DATE_AND_TIME_ASSIGNMENT ( #89, #147, ( #149 ) ) ;
#213 = DIRECTION ( 'NONE',  ( 1.000000000000000000, 0.0000000000000000000, 0.0000000000000000000 ) ) ;
#214 = PERSON_AND_ORGANIZATION_ROLE ( 'creator' ) ;
#215 =( BOUNDED_SURFACE ( )  B_SPLINE_SURFACE ( 3, 3, ( 
 ( #71, #70, #91, #125 ),
 ( #6, #160, #172, #122 ),
 ( #28, #107, #176, #24 ),
 ( #74, #8, #90, #189 ) ),
 .UNSPECIFIED., .F., .F., .F. ) 
 B_SPLINE_SURFACE_WITH_KNOTS ( ( 4, 4 ),
 ( 4, 4 ),
 ( 0.0000000000000000000, 1.000000000000000000 ),
 ( 0.0000000000000000000, 1.000000000000000000 ),
 .UNSPECIFIED. ) 
 GEOMETRIC_REPRESENTATION_ITEM ( )  RATIONAL_B_SPLINE_SURFACE ( (
 ( 1.000000000000000000, 0.9734585911933327800, 0.9734585911933327800, 1.000000000000000000),
 ( 0.8947366594961861900, 0.8709890880421861100, 0.8709890880421861100, 0.8947366594961861900),
 ( 0.8947366594961861900, 0.8709890880421861100, 0.8709890880421861100, 0.8947366594961861900),
 ( 1.000000000000000000, 0.9734585911933327800, 0.9734585911933327800, 1.000000000000000000) ) ) 
 REPRESENTATION_ITEM ( '' )  SURFACE ( )  );
#216 = PRODUCT_DEFINITION_SHAPE ( 'NONE', 'NONE',  #110 ) ;
#217 = SECURITY_CLASSIFICATION_LEVEL ( 'unclassified' ) ;
#218 = ORIENTED_EDGE ( 'NONE', *, *, #222, .F. ) ;
#219 = CARTESIAN_POINT ( 'NONE',  ( -5.204170427930421300E-015, -6.417832148303636700, 1.878950627993077000 ) ) ;
#220 = CARTESIAN_POINT ( 'NONE',  ( -2.410562056519617500, -2.390957562834720800, -0.7000013572153860300 ) ) ;
#221 = LOCAL_TIME ( 16, 38, 2.000000000000000000, #179 ) ;
#222 = EDGE_CURVE ( 'NONE', #26, #210, #44, .T. ) ;
#223 = DIRECTION ( 'NONE',  ( -0.0000000000000000000, -0.0000000000000000000, -1.000000000000000000 ) ) ;
#224 = PERSON_AND_ORGANIZATION ( #9, #69 ) ;
#225 = CARTESIAN_POINT ( 'NONE',  ( 2.498001805406600200E-016, 1.221245327087670000E-015, 4.000000000000000000 ) ) ;
#226 = ORIENTED_EDGE ( 'NONE', *, *, #14, .F. ) ;
#227 = EDGE_CURVE ( 'NONE', #96, #210, #98, .T. ) ;
#228 = CARTESIAN_POINT ( 'NONE',  ( -5.375958234704342900, 6.417832148303630500, 3.443020422460809200 ) ) ;
#229 = DIRECTION ( 'NONE',  ( 0.0000000000000000000, 0.0000000000000000000, 1.000000000000000000 ) ) ;
#230 = LOCAL_TIME ( 16, 38, 2.000000000000000000, #171 ) ;
#231 = CALENDAR_DATE ( 2018, 13, 12 ) ;
#232 = APPLICATION_CONTEXT ( 'configuration controlled 3d designs of mechanical parts and assemblies' ) ;
#233 = PERSON_AND_ORGANIZATION ( #9, #69 ) ;
#234 = COORDINATED_UNIVERSAL_TIME_OFFSET ( 2, 0, .AHEAD. ) ;
#235 = CARTESIAN_POINT ( 'NONE',  ( -6.071532165918824000E-015, -2.390957562834719900, -0.7000013572153865900 ) ) ;
ENDSEC;
END-ISO-10303-21;
