ISO-10303-21;
HEADER;
FILE_DESCRIPTION (( 'STEP AP203' ),
    '1' );
FILE_NAME ('110-0748E BK7 pl-cx 76.2 F3000.STEP',
    '2018-12-21T07:06:02',
    ( '' ),
    ( '' ),
    'SwSTEP 2.0',
    'SolidWorks 2017',
    '' );
FILE_SCHEMA (( 'CONFIG_CONTROL_DESIGN' ));
ENDSEC;

DATA;
#1 = CARTESIAN_POINT ( 'NONE',  ( 38.31678463992806600, -38.55710695392530600, 0.9497842454729195100 ) ) ;
#2 = CARTESIAN_POINT ( 'NONE',  ( 12.77387656085782200, 38.55710695392504300, 0.4777888106697292800 ) ) ;
#3 = FACE_OUTER_BOUND ( 'NONE', #33, .T. ) ;
#4 = CARTESIAN_POINT ( 'NONE',  ( -38.10000000000000900, 2.889547465351166000E-015, 0.4665255932293811400 ) ) ;
#5 = CARTESIAN_POINT ( 'NONE',  ( -9.325873406851310200E-015, -1.776356839400250100E-015, 0.4665255932293810300 ) ) ;
#6 = AXIS2_PLACEMENT_3D ( 'NONE', #161, #182, #110 ) ;
#7 = DIRECTION ( 'NONE',  ( 1.456985596620939900E-018, 6.792982492034799900E-035, 1.000000000000000000 ) ) ;
#8 = LOCAL_TIME ( 9, 6, 2.000000000000000000, #15 ) ;
#9 = AXIS2_PLACEMENT_3D ( 'NONE', #204, #169, #95 ) ;
#10 = APPROVAL_STATUS ( 'not_yet_approved' ) ;
#11 = CIRCLE ( 'NONE', #178, 38.10000000000000100 ) ;
#12 = CC_DESIGN_APPROVAL ( #89, ( #48 ) ) ;
#13 = ORIENTED_EDGE ( 'NONE', *, *, #234, .F. ) ;
#14 = AXIS2_PLACEMENT_3D ( 'NONE', #35, #220, #109 ) ;
#15 = COORDINATED_UNIVERSAL_TIME_OFFSET ( 2, 0, .AHEAD. ) ;
#16 = COORDINATED_UNIVERSAL_TIME_OFFSET ( 2, 0, .AHEAD. ) ;
#17 = CYLINDRICAL_SURFACE ( 'NONE', #172, 38.10000000000000100 ) ;
#18 = EDGE_CURVE ( 'NONE', #184, #90, #195, .T. ) ;
#19 = CARTESIAN_POINT ( 'NONE',  ( 25.55724710152993900, 12.85500050795087500, -0.001891336542975412700 ) ) ;
#20 = ORGANIZATION ( 'UNSPECIFIED', 'UNSPECIFIED', '' ) ;
#21 = EDGE_CURVE ( 'NONE', #113, #121, #26, .T. ) ;
#22 = DIRECTION ( 'NONE',  ( 1.000000000000000000, 0.0000000000000000000, 0.0000000000000000000 ) ) ;
#23 = ADVANCED_FACE ( 'NONE', ( #122 ), #62, .T. ) ;
#24 =( NAMED_UNIT ( * ) PLANE_ANGLE_UNIT ( ) SI_UNIT ( $, .RADIAN. ) );
#25 = CARTESIAN_POINT ( 'NONE',  ( -25.55724710153144100, -12.85500050795111100, -0.001891336543242776900 ) ) ;
#26 = CIRCLE ( 'NONE', #212, 38.10000000000000100 ) ;
#27 = CARTESIAN_POINT ( 'NONE',  ( -38.33247777752371400, 12.85500050795089600, 0.3128932006880820200 ) ) ;
#28 = APPROVAL_STATUS ( 'not_yet_approved' ) ;
#29 = SECURITY_CLASSIFICATION ( '', '', #152 ) ;
#30 = VECTOR ( 'NONE', #187, 1000.000000000000000 ) ;
#31 = AXIS2_PLACEMENT_3D ( 'NONE', #167, #227, #116 ) ;
#32 = CC_DESIGN_PERSON_AND_ORGANIZATION_ASSIGNMENT ( #179, #81, ( #29 ) ) ;
#33 = EDGE_LOOP ( 'NONE', ( #164, #221, #57, #106, #112 ) ) ;
#34 = CC_DESIGN_PERSON_AND_ORGANIZATION_ASSIGNMENT ( #153, #210, ( #53 ) ) ;
#35 = CARTESIAN_POINT ( 'NONE',  ( -9.325873406851310200E-015, -1.776356839400250100E-015, 0.4665255932293810300 ) ) ;
#36 = DIRECTION ( 'NONE',  ( 1.000000000000000000, 0.0000000000000000000, 0.0000000000000000000 ) ) ;
#37 = CARTESIAN_POINT ( 'NONE',  ( 25.54678408378223500, 38.55710695392504300, 0.6351285795632201100 ) ) ;
#38 = LOCAL_TIME ( 9, 6, 2.000000000000000000, #88 ) ;
#39 = CARTESIAN_POINT ( 'NONE',  ( 38.09999999999999400, -1.776356839400250100E-015, 0.4665255932293809700 ) ) ;
#40 = ADVANCED_FACE ( 'NONE', ( #3 ), #133, .T. ) ;
#41 = AXIS2_PLACEMENT_3D ( 'NONE', #58, #114, #115 ) ;
#42 =( BOUNDED_SURFACE ( )  B_SPLINE_SURFACE ( 3, 3, ( 
 ( #186, #141, #129, #185 ),
 ( #146, #25, #130, #200 ),
 ( #27, #147, #46, #170 ),
 ( #165, #78, #93, #44 ) ),
 .UNSPECIFIED., .F., .F., .F. ) 
 B_SPLINE_SURFACE_WITH_KNOTS ( ( 4, 4 ),
 ( 4, 4 ),
 ( 0.0000000000000000000, 1.000000000000000000 ),
 ( 0.0000000000000000000, 1.000000000000000000 ),
 .UNSPECIFIED. ) 
 GEOMETRIC_REPRESENTATION_ITEM ( )  RATIONAL_B_SPLINE_SURFACE ( (
 ( 1.000000000000000000, 0.9999494260582192400, 0.9999494260582192400, 1.000000000000000000),
 ( 0.9997952918548973500, 0.9997447282660143500, 0.9997447282660143500, 0.9997952918548973500),
 ( 0.9997952918548973500, 0.9997447282660143500, 0.9997447282660143500, 0.9997952918548973500),
 ( 1.000000000000000000, 0.9999494260582192400, 0.9999494260582192400, 1.000000000000000000) ) ) 
 REPRESENTATION_ITEM ( '' )  SURFACE ( )  );
#43 = DATE_AND_TIME ( #99, #148 ) ;
#44 = CARTESIAN_POINT ( 'NONE',  ( -1.221245327087672200E-012, 38.55710695392505000, 0.4777888106698289200 ) ) ;
#45 = DESIGN_CONTEXT ( 'detailed design', #117, 'design' ) ;
#46 = CARTESIAN_POINT ( 'NONE',  ( -12.77910826817449700, 12.85500050795088900, -0.1592955459854700200 ) ) ;
#47 = VECTOR ( 'NONE', #224, 1000.000000000000000 ) ;
#48 = PRODUCT_DEFINITION ( 'UNKNOWN', '', #66, #45 ) ;
#49 = APPLICATION_PROTOCOL_DEFINITION ( 'international standard', 'config_control_design', 1994, #117 ) ;
#50 = UNCERTAINTY_MEASURE_WITH_UNIT (LENGTH_MEASURE( 1.000000000000000100E-005 ), #128, 'distance_accuracy_value', 'NONE');
#51 = EDGE_LOOP ( 'NONE', ( #149, #201, #199, #13, #173 ) ) ;
#52 = LINE ( 'NONE', #39, #47 ) ;
#53 = PRODUCT ( '110-0748E BK7 pl-cx 76.2 F3000', '110-0748E BK7 pl-cx 76.2 F3000', '', ( #84 ) ) ;
#54 = CARTESIAN_POINT ( 'NONE',  ( 12.77910826817271500, 12.85500050795087800, -0.1592955459855760800 ) ) ;
#55 = CARTESIAN_POINT ( 'NONE',  ( 38.31678463992808000, 38.55710695392503600, 0.9497842454731415500 ) ) ;
#56 = EDGE_LOOP ( 'NONE', ( #229, #124, #222 ) ) ;
#57 = ORIENTED_EDGE ( 'NONE', *, *, #188, .F. ) ;
#58 = CARTESIAN_POINT ( 'NONE',  ( -9.325873406851310200E-015, -1.776356839400250100E-015, 0.4665255932293810900 ) ) ;
#59 = APPROVAL_PERSON_ORGANIZATION ( #205, #139, #61 ) ;
#60 = FACE_OUTER_BOUND ( 'NONE', #189, .T. ) ;
#61 = APPROVAL_ROLE ( '' ) ;
#62 =( BOUNDED_SURFACE ( )  B_SPLINE_SURFACE ( 3, 3, ( 
 ( #86, #108, #104, #1 ),
 ( #162, #103, #138, #125 ),
 ( #75, #54, #19, #135 ),
 ( #181, #2, #37, #55 ) ),
 .UNSPECIFIED., .F., .F., .F. ) 
 B_SPLINE_SURFACE_WITH_KNOTS ( ( 4, 4 ),
 ( 4, 4 ),
 ( 0.0000000000000000000, 1.000000000000000000 ),
 ( 0.0000000000000000000, 1.000000000000000000 ),
 .UNSPECIFIED. ) 
 GEOMETRIC_REPRESENTATION_ITEM ( )  RATIONAL_B_SPLINE_SURFACE ( (
 ( 1.000000000000000000, 0.9999494260582192400, 0.9999494260582192400, 1.000000000000000000),
 ( 0.9997952918548973500, 0.9997447282660143500, 0.9997447282660143500, 0.9997952918548973500),
 ( 0.9997952918548973500, 0.9997447282660143500, 0.9997447282660143500, 0.9997952918548973500),
 ( 1.000000000000000000, 0.9999494260582192400, 0.9999494260582192400, 1.000000000000000000) ) ) 
 REPRESENTATION_ITEM ( '' )  SURFACE ( )  );
#63 = DATE_TIME_ROLE ( 'creation_date' ) ;
#64 = ORIENTED_EDGE ( 'NONE', *, *, #120, .T. ) ;
#65 =( GEOMETRIC_REPRESENTATION_CONTEXT ( 3 ) GLOBAL_UNCERTAINTY_ASSIGNED_CONTEXT ( ( #50 ) ) GLOBAL_UNIT_ASSIGNED_CONTEXT ( ( #128, #24, #144 ) ) REPRESENTATION_CONTEXT ( 'NONE', 'WORKASPACE' ) );
#66 = PRODUCT_DEFINITION_FORMATION_WITH_SPECIFIED_SOURCE ( 'ANY', '', #53, .NOT_KNOWN. ) ;
#67 = CARTESIAN_POINT ( 'NONE',  ( -9.325873406851310200E-015, -1.776356839400250100E-015, 0.4665255932293810900 ) ) ;
#68 = PERSON_AND_ORGANIZATION ( #235, #20 ) ;
#69 = FACE_OUTER_BOUND ( 'NONE', #226, .T. ) ;
#70 = ORIENTED_EDGE ( 'NONE', *, *, #18, .F. ) ;
#71 = DATE_AND_TIME ( #214, #107 ) ;
#72 = DIRECTION ( 'NONE',  ( -1.456985596620939900E-018, -6.792982492034799900E-035, -1.000000000000000000 ) ) ;
#73 = ORIENTED_EDGE ( 'NONE', *, *, #166, .F. ) ;
#74 = CARTESIAN_POINT ( 'NONE',  ( -8.450428711534835800E-013, 38.10000000000686500, 0.4665255932294210000 ) ) ;
#75 = CARTESIAN_POINT ( 'NONE',  ( -8.527477522247679800E-013, 12.85500050795088200, -0.1592955459855727500 ) ) ;
#76 = LINE ( 'NONE', #159, #30 ) ;
#77 = ORIENTED_EDGE ( 'NONE', *, *, #21, .T. ) ;
#78 = CARTESIAN_POINT ( 'NONE',  ( -25.54678408378370600, 38.55710695392505700, 0.6351285795631788100 ) ) ;
#79 = DIRECTION ( 'NONE',  ( -1.456985596620939900E-018, -6.792982492034799900E-035, -1.000000000000000000 ) ) ;
#80 = MANIFOLD_SOLID_BREP ( 'Imported1', #180 ) ;
#81 = PERSON_AND_ORGANIZATION_ROLE ( 'classification_officer' ) ;
#82 = APPROVAL_ROLE ( '' ) ;
#83 = VERTEX_POINT ( 'NONE', #74 ) ;
#84 = MECHANICAL_CONTEXT ( 'NONE', #132, 'mechanical' ) ;
#85 = DIRECTION ( 'NONE',  ( 0.0000000000000000000, 0.0000000000000000000, 1.000000000000000000 ) ) ;
#86 = CARTESIAN_POINT ( 'NONE',  ( -8.679453237973334900E-013, -38.55710695392529200, 0.4777888106695105100 ) ) ;
#87 = CARTESIAN_POINT ( 'NONE',  ( 38.09999999999999400, -1.776356839400250100E-015, 7.500000000000000000 ) ) ;
#88 = COORDINATED_UNIVERSAL_TIME_OFFSET ( 2, 0, .AHEAD. ) ;
#89 = APPROVAL ( #174, 'UNSPECIFIED' ) ;
#90 = VERTEX_POINT ( 'NONE', #160 ) ;
#91 = CARTESIAN_POINT ( 'NONE',  ( 38.09999999999999400, -1.776356839400250100E-015, 0.4665255932293810300 ) ) ;
#92 = APPROVAL_DATE_TIME ( #137, #89 ) ;
#93 = CARTESIAN_POINT ( 'NONE',  ( -12.77387656085959100, 38.55710695392505700, 0.4777888106698353600 ) ) ;
#94 = CARTESIAN_POINT ( 'NONE',  ( -9.315625735946443200E-015, -1.776356839400250100E-015, 7.500000000000000000 ) ) ;
#95 = DIRECTION ( 'NONE',  ( 1.000000000000000000, 0.0000000000000000000, -0.0000000000000000000 ) ) ;
#96 = PERSON_AND_ORGANIZATION_ROLE ( 'design_supplier' ) ;
#97 = DIRECTION ( 'NONE',  ( 1.000000000000000000, 0.0000000000000000000, 0.0000000000000000000 ) ) ;
#98 = PERSON_AND_ORGANIZATION ( #235, #20 ) ;
#99 = CALENDAR_DATE ( 2018, 21, 12 ) ;
#100 = SHAPE_DEFINITION_REPRESENTATION ( #176, #111 ) ;
#101 = CC_DESIGN_PERSON_AND_ORGANIZATION_ASSIGNMENT ( #155, #150, ( #66 ) ) ;
#102 = APPROVAL_PERSON_ORGANIZATION ( #68, #218, #209 ) ;
#103 = CARTESIAN_POINT ( 'NONE',  ( 12.77910826817271000, -12.85500050795112500, -0.1592955459858021400 ) ) ;
#104 = CARTESIAN_POINT ( 'NONE',  ( 25.54678408378222100, -38.55710695392529900, 0.6351285795629978400 ) ) ;
#105 = DIRECTION ( 'NONE',  ( -1.456985596620939900E-018, -6.792982492034799900E-035, -1.000000000000000000 ) ) ;
#106 = ORIENTED_EDGE ( 'NONE', *, *, #234, .T. ) ;
#107 = LOCAL_TIME ( 9, 6, 2.000000000000000000, #154 ) ;
#108 = CARTESIAN_POINT ( 'NONE',  ( 12.77387656085780200, -38.55710695392529900, 0.4777888106695071200 ) ) ;
#109 = DIRECTION ( 'NONE',  ( 1.000000000000000000, 0.0000000000000000000, -1.422837496700137100E-018 ) ) ;
#110 = DIRECTION ( 'NONE',  ( -2.988028379211528500E-016, -1.000000000000000000, 5.708087530206460600E-016 ) ) ;
#111 = ADVANCED_BREP_SHAPE_REPRESENTATION ( '110-0748E BK7 pl-cx 76.2 F3000', ( #80, #193 ), #65 ) ;
#112 = ORIENTED_EDGE ( 'NONE', *, *, #18, .T. ) ;
#113 = VERTEX_POINT ( 'NONE', #192 ) ;
#114 = DIRECTION ( 'NONE',  ( -1.456985596620939900E-018, -6.792982492034799900E-035, -1.000000000000000000 ) ) ;
#115 = DIRECTION ( 'NONE',  ( 1.000000000000000000, 0.0000000000000000000, -1.422837496700137100E-018 ) ) ;
#116 = DIRECTION ( 'NONE',  ( 1.000000000000000000, 0.0000000000000000000, -1.422837496700137100E-018 ) ) ;
#117 = APPLICATION_CONTEXT ( 'configuration controlled 3d designs of mechanical parts and assemblies' ) ;
#118 = CALENDAR_DATE ( 2018, 21, 12 ) ;
#119 = FACE_OUTER_BOUND ( 'NONE', #51, .T. ) ;
#120 = EDGE_CURVE ( 'NONE', #121, #83, #11, .T. ) ;
#121 = VERTEX_POINT ( 'NONE', #4 ) ;
#122 = FACE_OUTER_BOUND ( 'NONE', #56, .T. ) ;
#123 = DIRECTION ( 'NONE',  ( 1.000000000000000000, 8.881784197001252300E-016, -1.422837496700137100E-018 ) ) ;
#124 = ORIENTED_EDGE ( 'NONE', *, *, #134, .T. ) ;
#125 = CARTESIAN_POINT ( 'NONE',  ( 38.33247777752252000, -12.85500050795113000, 0.3128932006879023300 ) ) ;
#126 = CC_DESIGN_SECURITY_CLASSIFICATION ( #29, ( #66 ) ) ;
#127 = DIRECTION ( 'NONE',  ( 1.000000000000000000, 0.0000000000000000000, -1.422837496700137100E-018 ) ) ;
#128 =( LENGTH_UNIT ( ) NAMED_UNIT ( * ) SI_UNIT ( .MILLI., .METRE. ) );
#129 = CARTESIAN_POINT ( 'NONE',  ( -12.77387656085962100, -38.55710695392528500, 0.4777888106696132100 ) ) ;
#130 = CARTESIAN_POINT ( 'NONE',  ( -12.77910826817450600, -12.85500050795111400, -0.1592955459856962000 ) ) ;
#131 = APPROVAL_PERSON_ORGANIZATION ( #98, #89, #82 ) ;
#132 = APPLICATION_CONTEXT ( 'configuration controlled 3d designs of mechanical parts and assemblies' ) ;
#133 = CYLINDRICAL_SURFACE ( 'NONE', #14, 38.10000000000000100 ) ;
#134 = EDGE_CURVE ( 'NONE', #113, #83, #183, .T. ) ;
#135 = CARTESIAN_POINT ( 'NONE',  ( 38.33247777752252000, 12.85500050795087100, 0.3128932006881282000 ) ) ;
#136 = DIRECTION ( 'NONE',  ( -1.456985596620939900E-018, -6.792982492034799900E-035, -1.000000000000000000 ) ) ;
#137 = DATE_AND_TIME ( #191, #8 ) ;
#138 = CARTESIAN_POINT ( 'NONE',  ( 25.55724710152993900, -12.85500050795112900, -0.001891336543201414800 ) ) ;
#139 = APPROVAL ( #10, 'UNSPECIFIED' ) ;
#140 = APPROVAL_DATE_TIME ( #43, #139 ) ;
#141 = CARTESIAN_POINT ( 'NONE',  ( -25.54678408378374100, -38.55710695392528500, 0.6351285795629566500 ) ) ;
#142 = CIRCLE ( 'NONE', #31, 38.10000000000000100 ) ;
#143 = VERTEX_POINT ( 'NONE', #91 ) ;
#144 =( NAMED_UNIT ( * ) SI_UNIT ( $, .STERADIAN. ) SOLID_ANGLE_UNIT ( ) );
#145 = EDGE_CURVE ( 'NONE', #83, #143, #142, .T. ) ;
#146 = CARTESIAN_POINT ( 'NONE',  ( -38.33247777752372800, -12.85500050795110700, 0.3128932006878559800 ) ) ;
#147 = CARTESIAN_POINT ( 'NONE',  ( -25.55724710153143100, 12.85500050795089200, -0.001891336543016666100 ) ) ;
#148 = LOCAL_TIME ( 9, 6, 2.000000000000000000, #198 ) ;
#149 = ORIENTED_EDGE ( 'NONE', *, *, #120, .F. ) ;
#150 = PERSON_AND_ORGANIZATION_ROLE ( 'creator' ) ;
#151 = DATE_AND_TIME ( #118, #163 ) ;
#152 = SECURITY_CLASSIFICATION_LEVEL ( 'unclassified' ) ;
#153 = PERSON_AND_ORGANIZATION ( #235, #20 ) ;
#154 = COORDINATED_UNIVERSAL_TIME_OFFSET ( 2, 0, .AHEAD. ) ;
#155 = PERSON_AND_ORGANIZATION ( #235, #20 ) ;
#156 = ORIENTED_EDGE ( 'NONE', *, *, #134, .F. ) ;
#157 = APPROVAL_DATE_TIME ( #71, #218 ) ;
#158 = EDGE_CURVE ( 'NONE', #121, #90, #76, .T. ) ;
#159 = CARTESIAN_POINT ( 'NONE',  ( -38.10000000000000900, 2.889547465351166000E-015, 0.4665255932293810900 ) ) ;
#160 = CARTESIAN_POINT ( 'NONE',  ( -38.10000000000000900, 2.889547465351166000E-015, 7.500000000000000000 ) ) ;
#161 = CARTESIAN_POINT ( 'NONE',  ( -4.547473508864640200E-013, 0.0000000000000000000, 1556.000000000000000 ) ) ;
#162 = CARTESIAN_POINT ( 'NONE',  ( -8.604299734912752600E-013, -12.85500050795112200, -0.1592955459857988100 ) ) ;
#163 = LOCAL_TIME ( 9, 6, 2.000000000000000000, #16 ) ;
#164 = ORIENTED_EDGE ( 'NONE', *, *, #158, .F. ) ;
#165 = CARTESIAN_POINT ( 'NONE',  ( -38.31678463992925300, 38.55710695392506400, 0.9497842454730953700 ) ) ;
#166 = EDGE_CURVE ( 'NONE', #90, #184, #215, .T. ) ;
#167 = CARTESIAN_POINT ( 'NONE',  ( -9.325873406851310200E-015, -1.776356839400250100E-015, 0.4665255932293810900 ) ) ;
#168 = CC_DESIGN_PERSON_AND_ORGANIZATION_ASSIGNMENT ( #232, #96, ( #66 ) ) ;
#169 = DIRECTION ( 'NONE',  ( 0.0000000000000000000, 0.0000000000000000000, 1.000000000000000000 ) ) ;
#170 = CARTESIAN_POINT ( 'NONE',  ( -1.228184220991579400E-012, 12.85500050795088500, -0.1592955459854763800 ) ) ;
#171 = PERSON_AND_ORGANIZATION_ROLE ( 'creator' ) ;
#172 = AXIS2_PLACEMENT_3D ( 'NONE', #5, #7, #127 ) ;
#173 = ORIENTED_EDGE ( 'NONE', *, *, #145, .F. ) ;
#174 = APPROVAL_STATUS ( 'not_yet_approved' ) ;
#175 = CC_DESIGN_DATE_AND_TIME_ASSIGNMENT ( #216, #63, ( #48 ) ) ;
#176 = PRODUCT_DEFINITION_SHAPE ( 'NONE', 'NONE',  #48 ) ;
#177 = CALENDAR_DATE ( 2018, 21, 12 ) ;
#178 = AXIS2_PLACEMENT_3D ( 'NONE', #217, #105, #123 ) ;
#179 = PERSON_AND_ORGANIZATION ( #235, #20 ) ;
#180 = CLOSED_SHELL ( 'NONE', ( #23, #228, #206, #40, #202 ) ) ;
#181 = CARTESIAN_POINT ( 'NONE',  ( -8.449033778376089600E-013, 38.55710695392505000, 0.4777888106697325600 ) ) ;
#182 = DIRECTION ( 'NONE',  ( 1.000000000000000000, -2.988028379211529900E-016, -2.582264637827899900E-016 ) ) ;
#183 = CIRCLE ( 'NONE', #6, 1556.000000000000000 ) ;
#184 = VERTEX_POINT ( 'NONE', #87 ) ;
#185 = CARTESIAN_POINT ( 'NONE',  ( -1.249000902703301100E-012, -38.55710695392529200, 0.4777888106696067700 ) ) ;
#186 = CARTESIAN_POINT ( 'NONE',  ( -38.31678463992928800, -38.55710695392527800, 0.9497842454728733200 ) ) ;
#187 = DIRECTION ( 'NONE',  ( 1.456985596620939900E-018, 6.792982492034799900E-035, 1.000000000000000000 ) ) ;
#188 = EDGE_CURVE ( 'NONE', #143, #113, #213, .T. ) ;
#189 = EDGE_LOOP ( 'NONE', ( #156, #77, #64 ) ) ;
#190 = AXIS2_PLACEMENT_3D ( 'NONE', #94, #79, #22 ) ;
#191 = CALENDAR_DATE ( 2018, 21, 12 ) ;
#192 = CARTESIAN_POINT ( 'NONE',  ( -8.678116474030794500E-013, -38.10000000000686500, 0.4665255932294210000 ) ) ;
#193 = AXIS2_PLACEMENT_3D ( 'NONE', #225, #85, #97 ) ;
#194 = CC_DESIGN_PERSON_AND_ORGANIZATION_ASSIGNMENT ( #233, #171, ( #48 ) ) ;
#195 = CIRCLE ( 'NONE', #196, 38.10000000000000100 ) ;
#196 = AXIS2_PLACEMENT_3D ( 'NONE', #219, #72, #36 ) ;
#197 = DIRECTION ( 'NONE',  ( 1.000000000000000000, 0.0000000000000000000, -1.422837496700137100E-018 ) ) ;
#198 = COORDINATED_UNIVERSAL_TIME_OFFSET ( 2, 0, .AHEAD. ) ;
#199 = ORIENTED_EDGE ( 'NONE', *, *, #166, .T. ) ;
#200 = CARTESIAN_POINT ( 'NONE',  ( -1.235123114895486900E-012, -12.85500050795111800, -0.1592955459857025300 ) ) ;
#201 = ORIENTED_EDGE ( 'NONE', *, *, #158, .T. ) ;
#202 = ADVANCED_FACE ( 'NONE', ( #69 ), #203, .T. ) ;
#203 = PLANE ( 'NONE',  #9 ) ;
#204 = CARTESIAN_POINT ( 'NONE',  ( 0.0000000000000000000, 77.92799999999999700, 7.500000000000000000 ) ) ;
#205 = PERSON_AND_ORGANIZATION ( #235, #20 ) ;
#206 = ADVANCED_FACE ( 'NONE', ( #60 ), #42, .T. ) ;
#207 = DATE_TIME_ROLE ( 'classification_date' ) ;
#208 = CC_DESIGN_DATE_AND_TIME_ASSIGNMENT ( #151, #207, ( #29 ) ) ;
#209 = APPROVAL_ROLE ( '' ) ;
#210 = PERSON_AND_ORGANIZATION_ROLE ( 'design_owner' ) ;
#211 = CC_DESIGN_APPROVAL ( #139, ( #66 ) ) ;
#212 = AXIS2_PLACEMENT_3D ( 'NONE', #67, #136, #197 ) ;
#213 = CIRCLE ( 'NONE', #41, 38.10000000000000100 ) ;
#214 = CALENDAR_DATE ( 2018, 21, 12 ) ;
#215 = CIRCLE ( 'NONE', #190, 38.10000000000000100 ) ;
#216 = DATE_AND_TIME ( #177, #38 ) ;
#217 = CARTESIAN_POINT ( 'NONE',  ( -9.325873406851310200E-015, -1.776356839400250100E-015, 0.4665255932293810900 ) ) ;
#218 = APPROVAL ( #28, 'UNSPECIFIED' ) ;
#219 = CARTESIAN_POINT ( 'NONE',  ( -9.315625735946443200E-015, -1.776356839400250100E-015, 7.500000000000000000 ) ) ;
#220 = DIRECTION ( 'NONE',  ( 1.456985596620939900E-018, 6.792982492034799900E-035, 1.000000000000000000 ) ) ;
#221 = ORIENTED_EDGE ( 'NONE', *, *, #21, .F. ) ;
#222 = ORIENTED_EDGE ( 'NONE', *, *, #145, .T. ) ;
#223 = CC_DESIGN_APPROVAL ( #218, ( #29 ) ) ;
#224 = DIRECTION ( 'NONE',  ( 1.456985596620939900E-018, 6.792982492034799900E-035, 1.000000000000000000 ) ) ;
#225 = CARTESIAN_POINT ( 'NONE',  ( 0.0000000000000000000, 0.0000000000000000000, 0.0000000000000000000 ) ) ;
#226 = EDGE_LOOP ( 'NONE', ( #70, #73 ) ) ;
#227 = DIRECTION ( 'NONE',  ( -1.456985596620939900E-018, -6.792982492034799900E-035, -1.000000000000000000 ) ) ;
#228 = ADVANCED_FACE ( 'NONE', ( #119 ), #17, .T. ) ;
#229 = ORIENTED_EDGE ( 'NONE', *, *, #188, .T. ) ;
#230 = PRODUCT_RELATED_PRODUCT_CATEGORY ( 'detail', '', ( #53 ) ) ;
#231 = APPLICATION_PROTOCOL_DEFINITION ( 'international standard', 'config_control_design', 1994, #132 ) ;
#232 = PERSON_AND_ORGANIZATION ( #235, #20 ) ;
#233 = PERSON_AND_ORGANIZATION ( #235, #20 ) ;
#234 = EDGE_CURVE ( 'NONE', #143, #184, #52, .T. ) ;
#235 = PERSON ( 'UNSPECIFIED', 'UNSPECIFIED', 'UNSPECIFIED', ('UNSPECIFIED'), ('UNSPECIFIED'), ('UNSPECIFIED') ) ;
ENDSEC;
END-ISO-10303-21;
