ISO-10303-21;
HEADER;
FILE_DESCRIPTION (( 'STEP AP203' ),
    '1' );
FILE_NAME ('110-0745E BK7 pl-cx 76.2 F2000.STEP',
    '2018-12-21T07:06:14',
    ( '' ),
    ( '' ),
    'SwSTEP 2.0',
    'SolidWorks 2017',
    '' );
FILE_SCHEMA (( 'CONFIG_CONTROL_DESIGN' ));
ENDSEC;

DATA;
#1 = EDGE_CURVE ( 'NONE', #147, #7, #17, .T. ) ;
#2 = DIRECTION ( 'NONE',  ( 0.0000000000000000000, 0.0000000000000000000, 1.000000000000000000 ) ) ;
#3 = FACE_OUTER_BOUND ( 'NONE', #158, .T. ) ;
#4 = PERSON ( 'UNSPECIFIED', 'UNSPECIFIED', 'UNSPECIFIED', ('UNSPECIFIED'), ('UNSPECIFIED'), ('UNSPECIFIED') ) ;
#5 = CALENDAR_DATE ( 2018, 21, 12 ) ;
#6 = PERSON_AND_ORGANIZATION ( #4, #31 ) ;
#7 = VERTEX_POINT ( 'NONE', #129 ) ;
#8 = EDGE_CURVE ( 'NONE', #100, #7, #182, .T. ) ;
#9 = PERSON_AND_ORGANIZATION_ROLE ( 'classification_officer' ) ;
#10 = CALENDAR_DATE ( 2018, 21, 12 ) ;
#11 = APPLICATION_CONTEXT ( 'configuration controlled 3d designs of mechanical parts and assemblies' ) ;
#12 = APPROVAL ( #165, 'UNSPECIFIED' ) ;
#13 = DATE_TIME_ROLE ( 'creation_date' ) ;
#14 = AXIS2_PLACEMENT_3D ( 'NONE', #167, #216, #72 ) ;
#15 = CARTESIAN_POINT ( 'NONE',  ( 9.020562075079396900E-014, 38.55699044896859800, 0.7170470920994002100 ) ) ;
#16 = APPROVAL_DATE_TIME ( #185, #73 ) ;
#17 = CIRCLE ( 'NONE', #208, 38.10000000000000100 ) ;
#18 = PRODUCT_DEFINITION_SHAPE ( 'NONE', 'NONE',  #32 ) ;
#19 = CARTESIAN_POINT ( 'NONE',  ( 38.33733447561053300, -12.85825748886648000, 0.4696081917061251100 ) ) ;
#20 = CARTESIAN_POINT ( 'NONE',  ( -9.325873406851310200E-015, -1.776356839400250100E-015, 7.700000000000000200 ) ) ;
#21 = PLANE ( 'NONE',  #66 ) ;
#22 = LOCAL_TIME ( 9, 6, 14.00000000000000000, #161 ) ;
#23 = ORIENTED_EDGE ( 'NONE', *, *, #120, .T. ) ;
#24 = ADVANCED_FACE ( 'NONE', ( #3 ), #205, .T. ) ;
#25 = AXIS2_PLACEMENT_3D ( 'NONE', #53, #210, #197 ) ;
#26 = EDGE_CURVE ( 'NONE', #64, #100, #99, .T. ) ;
#27 = LINE ( 'NONE', #170, #137 ) ;
#28 =( NAMED_UNIT ( * ) PLANE_ANGLE_UNIT ( ) SI_UNIT ( $, .RADIAN. ) );
#29 = DATE_TIME_ROLE ( 'classification_date' ) ;
#30 = ADVANCED_FACE ( 'NONE', ( #132 ), #122, .T. ) ;
#31 = ORGANIZATION ( 'UNSPECIFIED', 'UNSPECIFIED', '' ) ;
#32 = PRODUCT_DEFINITION ( 'UNKNOWN', '', #173, #141 ) ;
#33 = CYLINDRICAL_SURFACE ( 'NONE', #175, 38.10000000000000100 ) ;
#34 = CARTESIAN_POINT ( 'NONE',  ( -12.77096714477049800, -38.55699044896832800, 0.7170470920994033200 ) ) ;
#35 = ADVANCED_BREP_SHAPE_REPRESENTATION ( '110-0745E BK7 pl-cx 76.2 F2000', ( #49, #179 ), #96 ) ;
#36 = DIRECTION ( 'NONE',  ( -0.0000000000000000000, -0.0000000000000000000, -1.000000000000000000 ) ) ;
#37 = AXIS2_PLACEMENT_3D ( 'NONE', #20, #58, #97 ) ;
#38 = ORIENTED_EDGE ( 'NONE', *, *, #8, .T. ) ;
#39 = CARTESIAN_POINT ( 'NONE',  ( -25.53975253772887300, -38.55699044896832800, 0.9531009024530871000 ) ) ;
#40 = CARTESIAN_POINT ( 'NONE',  ( 38.30199342069705200, 38.55699044896859800, 1.425127869781159100 ) ) ;
#41 = CARTESIAN_POINT ( 'NONE',  ( 12.78275085133127600, -12.85825748886648300, -0.2391259285150678900 ) ) ;
#42 = CARTESIAN_POINT ( 'NONE',  ( 3.410605131648479900E-013, 38.55699044896859800, 0.7170470920994098700 ) ) ;
#43 = EDGE_CURVE ( 'NONE', #64, #93, #27, .T. ) ;
#44 = ORIENTED_EDGE ( 'NONE', *, *, #110, .F. ) ;
#45 = AXIS2_PLACEMENT_3D ( 'NONE', #55, #74, #183 ) ;
#46 = CALENDAR_DATE ( 2018, 21, 12 ) ;
#47 = FACE_OUTER_BOUND ( 'NONE', #67, .T. ) ;
#48 = MECHANICAL_CONTEXT ( 'NONE', #11, 'mechanical' ) ;
#49 = MANIFOLD_SOLID_BREP ( 'Imported1', #188 ) ;
#50 = CARTESIAN_POINT ( 'NONE',  ( -38.10000000000000900, 2.889547465351166000E-015, 0.7001447457401119800 ) ) ;
#51 = CC_DESIGN_APPROVAL ( #12, ( #138 ) ) ;
#52 = ORIENTED_EDGE ( 'NONE', *, *, #43, .F. ) ;
#53 = CARTESIAN_POINT ( 'NONE',  ( -9.325873406851310200E-015, -1.776356839400250100E-015, 0.7001447457401119800 ) ) ;
#54 = CARTESIAN_POINT ( 'NONE',  ( -38.33733447561135700, 12.85825748886674400, 0.4696081917061824000 ) ) ;
#55 = CARTESIAN_POINT ( 'NONE',  ( -9.325873406851310200E-015, -1.776356839400250100E-015, 0.7001447457401119800 ) ) ;
#56 = ORIENTED_EDGE ( 'NONE', *, *, #110, .T. ) ;
#57 = CARTESIAN_POINT ( 'NONE',  ( 12.77096714477051600, -38.55699044896832800, 0.7170470920994098700 ) ) ;
#58 = DIRECTION ( 'NONE',  ( -0.0000000000000000000, -0.0000000000000000000, -1.000000000000000000 ) ) ;
#59 = COORDINATED_UNIVERSAL_TIME_OFFSET ( 2, 0, .AHEAD. ) ;
#60 = DIRECTION ( 'NONE',  ( 1.000000000000000000, 0.0000000000000000000, 0.0000000000000000000 ) ) ;
#61 = CARTESIAN_POINT ( 'NONE',  ( 38.09999999999999400, -1.776356839400250100E-015, 0.7001447457401119800 ) ) ;
#62 = PRODUCT ( '110-0745E BK7 pl-cx 76.2 F2000', '110-0745E BK7 pl-cx 76.2 F2000', '', ( #48 ) ) ;
#63 = APPROVAL_PERSON_ORGANIZATION ( #124, #114, #192 ) ;
#64 = VERTEX_POINT ( 'NONE', #61 ) ;
#65 = ADVANCED_FACE ( 'NONE', ( #84 ), #187, .T. ) ;
#66 = AXIS2_PLACEMENT_3D ( 'NONE', #193, #146, #180 ) ;
#67 = EDGE_LOOP ( 'NONE', ( #44, #107 ) ) ;
#68 = APPROVAL_STATUS ( 'not_yet_approved' ) ;
#69 = CALENDAR_DATE ( 2018, 21, 12 ) ;
#70 = APPLICATION_CONTEXT ( 'configuration controlled 3d designs of mechanical parts and assemblies' ) ;
#71 = ORIENTED_EDGE ( 'NONE', *, *, #120, .F. ) ;
#72 = DIRECTION ( 'NONE',  ( 0.0000000000000000000, -1.000000000000000000, -8.564883507233608400E-016 ) ) ;
#73 = APPROVAL ( #88, 'UNSPECIFIED' ) ;
#74 = DIRECTION ( 'NONE',  ( -0.0000000000000000000, -0.0000000000000000000, -1.000000000000000000 ) ) ;
#75 = CARTESIAN_POINT ( 'NONE',  ( 25.53975253772847200, -38.55699044896832800, 0.9531009024530624500 ) ) ;
#76 = CARTESIAN_POINT ( 'NONE',  ( -12.78275085133125800, -12.85825748886648200, -0.2391259285150745800 ) ) ;
#77 = APPROVAL_PERSON_ORGANIZATION ( #174, #12, #178 ) ;
#78 = CARTESIAN_POINT ( 'NONE',  ( 3.410605131648479900E-013, 12.85825748886674400, -0.2391259285150688100 ) ) ;
#79 = CC_DESIGN_PERSON_AND_ORGANIZATION_ASSIGNMENT ( #235, #9, ( #138 ) ) ;
#80 = EDGE_CURVE ( 'NONE', #104, #93, #229, .T. ) ;
#81 = APPROVAL_DATE_TIME ( #106, #114 ) ;
#82 = ORIENTED_EDGE ( 'NONE', *, *, #101, .F. ) ;
#83 = UNCERTAINTY_MEASURE_WITH_UNIT (LENGTH_MEASURE( 1.000000000000000100E-005 ), #196, 'distance_accuracy_value', 'NONE');
#84 = FACE_OUTER_BOUND ( 'NONE', #150, .T. ) ;
#85 = CIRCLE ( 'NONE', #233, 38.10000000000000100 ) ;
#86 = PERSON_AND_ORGANIZATION_ROLE ( 'creator' ) ;
#87 =( NAMED_UNIT ( * ) SI_UNIT ( $, .STERADIAN. ) SOLID_ANGLE_UNIT ( ) );
#88 = APPROVAL_STATUS ( 'not_yet_approved' ) ;
#89 = PERSON_AND_ORGANIZATION_ROLE ( 'creator' ) ;
#90 = CC_DESIGN_APPROVAL ( #73, ( #32 ) ) ;
#91 = AXIS2_PLACEMENT_3D ( 'NONE', #118, #163, #111 ) ;
#92 = ADVANCED_FACE ( 'NONE', ( #177 ), #33, .T. ) ;
#93 = VERTEX_POINT ( 'NONE', #117 ) ;
#94 = CARTESIAN_POINT ( 'NONE',  ( 3.410605131648479900E-013, -12.85825748886648000, -0.2391259285150678400 ) ) ;
#95 = DIRECTION ( 'NONE',  ( 0.0000000000000000000, 0.0000000000000000000, 1.000000000000000000 ) ) ;
#96 =( GEOMETRIC_REPRESENTATION_CONTEXT ( 3 ) GLOBAL_UNCERTAINTY_ASSIGNED_CONTEXT ( ( #83 ) ) GLOBAL_UNIT_ASSIGNED_CONTEXT ( ( #196, #28, #87 ) ) REPRESENTATION_CONTEXT ( 'NONE', 'WORKASPACE' ) );
#97 = DIRECTION ( 'NONE',  ( 1.000000000000000000, 0.0000000000000000000, 0.0000000000000000000 ) ) ;
#98 = LOCAL_TIME ( 9, 6, 14.00000000000000000, #59 ) ;
#99 = CIRCLE ( 'NONE', #45, 38.10000000000000100 ) ;
#100 = VERTEX_POINT ( 'NONE', #234 ) ;
#101 = EDGE_CURVE ( 'NONE', #7, #64, #140, .T. ) ;
#102 = DATE_AND_TIME ( #46, #136 ) ;
#103 = PRODUCT_RELATED_PRODUCT_CATEGORY ( 'detail', '', ( #62 ) ) ;
#104 = VERTEX_POINT ( 'NONE', #203 ) ;
#105 = EDGE_CURVE ( 'NONE', #147, #104, #221, .T. ) ;
#106 = DATE_AND_TIME ( #113, #98 ) ;
#107 = ORIENTED_EDGE ( 'NONE', *, *, #80, .F. ) ;
#108 = SECURITY_CLASSIFICATION_LEVEL ( 'unclassified' ) ;
#109 = COORDINATED_UNIVERSAL_TIME_OFFSET ( 2, 0, .AHEAD. ) ;
#110 = EDGE_CURVE ( 'NONE', #93, #104, #85, .T. ) ;
#111 = DIRECTION ( 'NONE',  ( 1.000000000000000000, -8.881784197001252300E-016, 0.0000000000000000000 ) ) ;
#112 = CARTESIAN_POINT ( 'NONE',  ( -25.53975253772887300, 38.55699044896859100, 0.9531009024530871000 ) ) ;
#113 = CALENDAR_DATE ( 2018, 21, 12 ) ;
#114 = APPROVAL ( #68, 'UNSPECIFIED' ) ;
#115 = CARTESIAN_POINT ( 'NONE',  ( -25.56331793775908800, -12.85825748886648300, -0.002854312508754711000 ) ) ;
#116 = CARTESIAN_POINT ( 'NONE',  ( 9.020562075079398200E-014, 12.85825748886674600, -0.2391259285150786900 ) ) ;
#117 = CARTESIAN_POINT ( 'NONE',  ( 38.09999999999999400, -1.776356839400250100E-015, 7.700000000000000200 ) ) ;
#118 = CARTESIAN_POINT ( 'NONE',  ( -9.325873406851310200E-015, -1.776356839400250100E-015, 0.7001447457401119800 ) ) ;
#119 = ADVANCED_FACE ( 'NONE', ( #47 ), #21, .T. ) ;
#120 = EDGE_CURVE ( 'NONE', #100, #147, #121, .T. ) ;
#121 = CIRCLE ( 'NONE', #25, 38.10000000000000100 ) ;
#122 =( BOUNDED_SURFACE ( )  B_SPLINE_SURFACE ( 3, 3, ( 
 ( #214, #57, #75, #200 ),
 ( #94, #41, #157, #19 ),
 ( #78, #218, #154, #219 ),
 ( #42, #133, #171, #40 ) ),
 .UNSPECIFIED., .F., .F., .T. ) 
 B_SPLINE_SURFACE_WITH_KNOTS ( ( 4, 4 ),
 ( 4, 4 ),
 ( 0.0000000000000000000, 1.000000000000000000 ),
 ( 0.0000000000000000000, 1.000000000000000000 ),
 .UNSPECIFIED. ) 
 GEOMETRIC_REPRESENTATION_ITEM ( )  RATIONAL_B_SPLINE_SURFACE ( (
 ( 1.000000000000000000, 0.9998861087659493000, 0.9998861087659493000, 1.000000000000000000),
 ( 0.9995390246916751000, 0.9994251859586711400, 0.9994251859586711400, 0.9995390246916751000),
 ( 0.9995390246916751000, 0.9994251859586711400, 0.9994251859586711400, 0.9995390246916751000),
 ( 1.000000000000000000, 0.9998861087659493000, 0.9998861087659493000, 1.000000000000000000) ) ) 
 REPRESENTATION_ITEM ( '' )  SURFACE ( )  );
#123 = DIRECTION ( 'NONE',  ( 0.0000000000000000000, 0.0000000000000000000, 1.000000000000000000 ) ) ;
#124 = PERSON_AND_ORGANIZATION ( #4, #31 ) ;
#125 = DIRECTION ( 'NONE',  ( 1.000000000000000000, 0.0000000000000000000, 0.0000000000000000000 ) ) ;
#126 = APPLICATION_PROTOCOL_DEFINITION ( 'international standard', 'config_control_design', 1994, #70 ) ;
#127 = VECTOR ( 'NONE', #123, 1000.000000000000000 ) ;
#128 = DIRECTION ( 'NONE',  ( 1.000000000000000000, 0.0000000000000000000, 0.0000000000000000000 ) ) ;
#129 = CARTESIAN_POINT ( 'NONE',  ( 3.410605131648479900E-013, 38.10000000000109600, 0.7001447457401587200 ) ) ;
#130 = CARTESIAN_POINT ( 'NONE',  ( 9.020562075079398200E-014, -12.85825748886647800, -0.2391259285150776100 ) ) ;
#131 = CARTESIAN_POINT ( 'NONE',  ( -38.33733447561135700, -12.85825748886648000, 0.4696081917061836200 ) ) ;
#132 = FACE_OUTER_BOUND ( 'NONE', #172, .T. ) ;
#133 = CARTESIAN_POINT ( 'NONE',  ( 12.77096714477051600, 38.55699044896859100, 0.7170470920994098700 ) ) ;
#134 = CARTESIAN_POINT ( 'NONE',  ( -38.10000000000000900, 2.889547465351166000E-015, 0.7001447457401119800 ) ) ;
#135 = DIRECTION ( 'NONE',  ( 0.0000000000000000000, 0.0000000000000000000, 1.000000000000000000 ) ) ;
#136 = LOCAL_TIME ( 9, 6, 14.00000000000000000, #195 ) ;
#137 = VECTOR ( 'NONE', #135, 1000.000000000000000 ) ;
#138 = SECURITY_CLASSIFICATION ( '', '', #108 ) ;
#139 = ORIENTED_EDGE ( 'NONE', *, *, #26, .F. ) ;
#140 = CIRCLE ( 'NONE', #91, 38.10000000000000100 ) ;
#141 = DESIGN_CONTEXT ( 'detailed design', #70, 'design' ) ;
#142 = DIRECTION ( 'NONE',  ( 0.0000000000000000000, 0.0000000000000000000, 1.000000000000000000 ) ) ;
#143 = ORIENTED_EDGE ( 'NONE', *, *, #26, .T. ) ;
#144 = CARTESIAN_POINT ( 'NONE',  ( 0.0000000000000000000, 0.0000000000000000000, 0.0000000000000000000 ) ) ;
#145 = DIRECTION ( 'NONE',  ( 1.000000000000000000, 0.0000000000000000000, 0.0000000000000000000 ) ) ;
#146 = DIRECTION ( 'NONE',  ( 0.0000000000000000000, 0.0000000000000000000, 1.000000000000000000 ) ) ;
#147 = VERTEX_POINT ( 'NONE', #50 ) ;
#148 = CARTESIAN_POINT ( 'NONE',  ( -38.30199342069786200, -38.55699044896833500, 1.425127869781217500 ) ) ;
#149 = PERSON_AND_ORGANIZATION ( #4, #31 ) ;
#150 = EDGE_LOOP ( 'NONE', ( #225, #232, #199, #52, #82 ) ) ;
#151 = CC_DESIGN_DATE_AND_TIME_ASSIGNMENT ( #102, #29, ( #138 ) ) ;
#152 = CARTESIAN_POINT ( 'NONE',  ( -12.78275085133125800, 12.85825748886674800, -0.2391259285150756600 ) ) ;
#153 = CARTESIAN_POINT ( 'NONE',  ( -9.325873406851310200E-015, -1.776356839400250100E-015, 0.7001447457401119800 ) ) ;
#154 = CARTESIAN_POINT ( 'NONE',  ( 25.56331793775867900, 12.85825748886674600, -0.002854312508780352400 ) ) ;
#155 = PERSON_AND_ORGANIZATION ( #4, #31 ) ;
#156 = ORIENTED_EDGE ( 'NONE', *, *, #105, .F. ) ;
#157 = CARTESIAN_POINT ( 'NONE',  ( 25.56331793775867900, -12.85825748886648300, -0.002854312508779376200 ) ) ;
#158 = EDGE_LOOP ( 'NONE', ( #226, #23, #223 ) ) ;
#159 = CC_DESIGN_APPROVAL ( #114, ( #173 ) ) ;
#160 = COORDINATED_UNIVERSAL_TIME_OFFSET ( 2, 0, .AHEAD. ) ;
#161 = COORDINATED_UNIVERSAL_TIME_OFFSET ( 2, 0, .AHEAD. ) ;
#162 = DIRECTION ( 'NONE',  ( -0.0000000000000000000, -0.0000000000000000000, -1.000000000000000000 ) ) ;
#163 = DIRECTION ( 'NONE',  ( -0.0000000000000000000, -0.0000000000000000000, -1.000000000000000000 ) ) ;
#164 = APPROVAL_DATE_TIME ( #198, #12 ) ;
#165 = APPROVAL_STATUS ( 'not_yet_approved' ) ;
#166 = AXIS2_PLACEMENT_3D ( 'NONE', #153, #2, #217 ) ;
#167 = CARTESIAN_POINT ( 'NONE',  ( 3.410605131648479900E-013, 1.136868377216160000E-013, 1037.000000000000000 ) ) ;
#168 = CARTESIAN_POINT ( 'NONE',  ( 9.020562075079396900E-014, -38.55699044896833500, 0.7170470920994002100 ) ) ;
#169 = PERSON_AND_ORGANIZATION ( #4, #31 ) ;
#170 = CARTESIAN_POINT ( 'NONE',  ( 38.09999999999999400, -1.776356839400250100E-015, 0.7001447457401119800 ) ) ;
#171 = CARTESIAN_POINT ( 'NONE',  ( 25.53975253772847900, 38.55699044896859100, 0.9531009024530624500 ) ) ;
#172 = EDGE_LOOP ( 'NONE', ( #143, #38, #190 ) ) ;
#173 = PRODUCT_DEFINITION_FORMATION_WITH_SPECIFIED_SOURCE ( 'ANY', '', #62, .NOT_KNOWN. ) ;
#174 = PERSON_AND_ORGANIZATION ( #4, #31 ) ;
#175 = AXIS2_PLACEMENT_3D ( 'NONE', #186, #95, #60 ) ;
#176 = PERSON_AND_ORGANIZATION_ROLE ( 'design_owner' ) ;
#177 = FACE_OUTER_BOUND ( 'NONE', #215, .T. ) ;
#178 = APPROVAL_ROLE ( '' ) ;
#179 = AXIS2_PLACEMENT_3D ( 'NONE', #144, #142, #125 ) ;
#180 = DIRECTION ( 'NONE',  ( 1.000000000000000000, 0.0000000000000000000, -0.0000000000000000000 ) ) ;
#181 = CARTESIAN_POINT ( 'NONE',  ( -9.325873406851310200E-015, -1.776356839400250100E-015, 7.700000000000000200 ) ) ;
#182 = CIRCLE ( 'NONE', #14, 1037.000000000000000 ) ;
#183 = DIRECTION ( 'NONE',  ( 1.000000000000000000, 0.0000000000000000000, 0.0000000000000000000 ) ) ;
#184 = ORIENTED_EDGE ( 'NONE', *, *, #43, .T. ) ;
#185 = DATE_AND_TIME ( #5, #22 ) ;
#186 = CARTESIAN_POINT ( 'NONE',  ( -9.325873406851310200E-015, -1.776356839400250100E-015, 0.7001447457401119800 ) ) ;
#187 = CYLINDRICAL_SURFACE ( 'NONE', #166, 38.10000000000000100 ) ;
#188 = CLOSED_SHELL ( 'NONE', ( #30, #65, #24, #92, #119 ) ) ;
#189 = LOCAL_TIME ( 9, 6, 14.00000000000000000, #160 ) ;
#190 = ORIENTED_EDGE ( 'NONE', *, *, #101, .T. ) ;
#191 = PERSON_AND_ORGANIZATION ( #4, #31 ) ;
#192 = APPROVAL_ROLE ( '' ) ;
#193 = CARTESIAN_POINT ( 'NONE',  ( 0.0000000000000000000, 77.92799999999999700, 7.700000000000000200 ) ) ;
#194 = APPLICATION_PROTOCOL_DEFINITION ( 'international standard', 'config_control_design', 1994, #11 ) ;
#195 = COORDINATED_UNIVERSAL_TIME_OFFSET ( 2, 0, .AHEAD. ) ;
#196 =( LENGTH_UNIT ( ) NAMED_UNIT ( * ) SI_UNIT ( .MILLI., .METRE. ) );
#197 = DIRECTION ( 'NONE',  ( 1.000000000000000000, 0.0000000000000000000, 0.0000000000000000000 ) ) ;
#198 = DATE_AND_TIME ( #69, #189 ) ;
#199 = ORIENTED_EDGE ( 'NONE', *, *, #80, .T. ) ;
#200 = CARTESIAN_POINT ( 'NONE',  ( 38.30199342069704500, -38.55699044896833500, 1.425127869781159100 ) ) ;
#201 = CARTESIAN_POINT ( 'NONE',  ( -25.56331793775908800, 12.85825748886674600, -0.002854312508755903200 ) ) ;
#202 = CC_DESIGN_PERSON_AND_ORGANIZATION_ASSIGNMENT ( #155, #176, ( #62 ) ) ;
#203 = CARTESIAN_POINT ( 'NONE',  ( -38.10000000000000900, 2.889547465351166000E-015, 7.700000000000000200 ) ) ;
#204 = APPROVAL_PERSON_ORGANIZATION ( #191, #73, #227 ) ;
#205 =( BOUNDED_SURFACE ( )  B_SPLINE_SURFACE ( 3, 3, ( 
 ( #148, #39, #34, #168 ),
 ( #131, #115, #76, #130 ),
 ( #54, #201, #152, #116 ),
 ( #213, #112, #230, #15 ) ),
 .UNSPECIFIED., .F., .F., .F. ) 
 B_SPLINE_SURFACE_WITH_KNOTS ( ( 4, 4 ),
 ( 4, 4 ),
 ( 0.0000000000000000000, 1.000000000000000000 ),
 ( 0.0000000000000000000, 1.000000000000000000 ),
 .UNSPECIFIED. ) 
 GEOMETRIC_REPRESENTATION_ITEM ( )  RATIONAL_B_SPLINE_SURFACE ( (
 ( 1.000000000000000000, 0.9998861087659493000, 0.9998861087659493000, 1.000000000000000000),
 ( 0.9995390246916751000, 0.9994251859586711400, 0.9994251859586711400, 0.9995390246916751000),
 ( 0.9995390246916751000, 0.9994251859586711400, 0.9994251859586711400, 0.9995390246916751000),
 ( 1.000000000000000000, 0.9998861087659493000, 0.9998861087659493000, 1.000000000000000000) ) ) 
 REPRESENTATION_ITEM ( '' )  SURFACE ( )  );
#206 = LOCAL_TIME ( 9, 6, 14.00000000000000000, #109 ) ;
#207 = CC_DESIGN_DATE_AND_TIME_ASSIGNMENT ( #220, #13, ( #32 ) ) ;
#208 = AXIS2_PLACEMENT_3D ( 'NONE', #231, #36, #128 ) ;
#209 = PERSON_AND_ORGANIZATION_ROLE ( 'design_supplier' ) ;
#210 = DIRECTION ( 'NONE',  ( -0.0000000000000000000, -0.0000000000000000000, -1.000000000000000000 ) ) ;
#211 = CC_DESIGN_PERSON_AND_ORGANIZATION_ASSIGNMENT ( #169, #209, ( #173 ) ) ;
#212 = SHAPE_DEFINITION_REPRESENTATION ( #18, #35 ) ;
#213 = CARTESIAN_POINT ( 'NONE',  ( -38.30199342069786200, 38.55699044896859800, 1.425127869781217500 ) ) ;
#214 = CARTESIAN_POINT ( 'NONE',  ( 3.410605131648479900E-013, -38.55699044896833500, 0.7170470920994098700 ) ) ;
#215 = EDGE_LOOP ( 'NONE', ( #156, #71, #139, #184, #56 ) ) ;
#216 = DIRECTION ( 'NONE',  ( 1.000000000000000000, 0.0000000000000000000, 0.0000000000000000000 ) ) ;
#217 = DIRECTION ( 'NONE',  ( 1.000000000000000000, 0.0000000000000000000, 0.0000000000000000000 ) ) ;
#218 = CARTESIAN_POINT ( 'NONE',  ( 12.78275085133127600, 12.85825748886674600, -0.2391259285150688600 ) ) ;
#219 = CARTESIAN_POINT ( 'NONE',  ( 38.33733447561053300, 12.85825748886674400, 0.4696081917061241100 ) ) ;
#220 = DATE_AND_TIME ( #10, #206 ) ;
#221 = LINE ( 'NONE', #134, #127 ) ;
#222 = CC_DESIGN_PERSON_AND_ORGANIZATION_ASSIGNMENT ( #6, #86, ( #173 ) ) ;
#223 = ORIENTED_EDGE ( 'NONE', *, *, #1, .T. ) ;
#224 = CC_DESIGN_SECURITY_CLASSIFICATION ( #138, ( #173 ) ) ;
#225 = ORIENTED_EDGE ( 'NONE', *, *, #1, .F. ) ;
#226 = ORIENTED_EDGE ( 'NONE', *, *, #8, .F. ) ;
#227 = APPROVAL_ROLE ( '' ) ;
#228 = CC_DESIGN_PERSON_AND_ORGANIZATION_ASSIGNMENT ( #149, #89, ( #32 ) ) ;
#229 = CIRCLE ( 'NONE', #37, 38.10000000000000100 ) ;
#230 = CARTESIAN_POINT ( 'NONE',  ( -12.77096714477049800, 38.55699044896859100, 0.7170470920994033200 ) ) ;
#231 = CARTESIAN_POINT ( 'NONE',  ( -9.325873406851310200E-015, -1.776356839400250100E-015, 0.7001447457401119800 ) ) ;
#232 = ORIENTED_EDGE ( 'NONE', *, *, #105, .T. ) ;
#233 = AXIS2_PLACEMENT_3D ( 'NONE', #181, #162, #145 ) ;
#234 = CARTESIAN_POINT ( 'NONE',  ( 3.410605131648479900E-013, -38.10000000000098900, 0.7001447457401587200 ) ) ;
#235 = PERSON_AND_ORGANIZATION ( #4, #31 ) ;
ENDSEC;
END-ISO-10303-21;
