ISO-10303-21;
HEADER;
FILE_DESCRIPTION (( 'STEP AP203' ),
    '1' );
FILE_NAME ('110-0740E BK7 pl-cx 76.2 F1500.STEP',
    '2018-12-21T07:06:29',
    ( '' ),
    ( '' ),
    'SwSTEP 2.0',
    'SolidWorks 2017',
    '' );
FILE_SCHEMA (( 'CONFIG_CONTROL_DESIGN' ));
ENDSEC;

DATA;
#1 = CIRCLE ( 'NONE', #51, 38.10000000000000100 ) ;
#2 = MANIFOLD_SOLID_BREP ( 'Imported1', #79 ) ;
#3 = AXIS2_PLACEMENT_3D ( 'NONE', #91, #179, #198 ) ;
#4 = PERSON_AND_ORGANIZATION ( #170, #70 ) ;
#5 = DIRECTION ( 'NONE',  ( 1.000000000000000000, 0.0000000000000000000, -2.845674993400274200E-018 ) ) ;
#6 = ORIENTED_EDGE ( 'NONE', *, *, #181, .F. ) ;
#7 = ADVANCED_FACE ( 'NONE', ( #66 ), #106, .T. ) ;
#8 = ORIENTED_EDGE ( 'NONE', *, *, #151, .F. ) ;
#9 = CARTESIAN_POINT ( 'NONE',  ( 38.28132972987712900, -38.55682764413162300, 1.899303764720140300 ) ) ;
#10 = AXIS2_PLACEMENT_3D ( 'NONE', #216, #152, #87 ) ;
#11 = DIRECTION ( 'NONE',  ( 0.0000000000000000000, 0.0000000000000000000, 1.000000000000000000 ) ) ;
#12 = APPROVAL_STATUS ( 'not_yet_approved' ) ;
#13 = ORIENTED_EDGE ( 'NONE', *, *, #196, .F. ) ;
#14 = DIRECTION ( 'NONE',  ( 2.987644363226529900E-016, -1.000000000000000000, 0.0000000000000000000 ) ) ;
#15 =( GEOMETRIC_REPRESENTATION_CONTEXT ( 3 ) GLOBAL_UNCERTAINTY_ASSIGNED_CONTEXT ( ( #39 ) ) GLOBAL_UNIT_ASSIGNED_CONTEXT ( ( #130, #166, #231 ) ) REPRESENTATION_CONTEXT ( 'NONE', 'WORKASPACE' ) );
#16 = APPROVAL_DATE_TIME ( #25, #225 ) ;
#17 = AXIS2_PLACEMENT_3D ( 'NONE', #94, #11, #65 ) ;
#18 = ADVANCED_FACE ( 'NONE', ( #219 ), #188, .T. ) ;
#19 = LOCAL_TIME ( 9, 6, 29.00000000000000000, #46 ) ;
#20 = DIRECTION ( 'NONE',  ( 2.913971193241879900E-018, 1.358596498406960000E-034, 1.000000000000000000 ) ) ;
#21 = CYLINDRICAL_SURFACE ( 'NONE', #73, 38.10000000000000100 ) ;
#22 = AXIS2_PLACEMENT_3D ( 'NONE', #180, #134, #14 ) ;
#23 = DIRECTION ( 'NONE',  ( 0.0000000000000000000, 0.0000000000000000000, 1.000000000000000000 ) ) ;
#24 = DIRECTION ( 'NONE',  ( 1.000000000000000000, 0.0000000000000000000, -0.0000000000000000000 ) ) ;
#25 = DATE_AND_TIME ( #135, #74 ) ;
#26 = LINE ( 'NONE', #191, #153 ) ;
#27 = CARTESIAN_POINT ( 'NONE',  ( 1.665334536937734800E-013, 38.55682764413167300, 0.9558814209421955300 ) ) ;
#28 = CARTESIAN_POINT ( 'NONE',  ( -9.305572792947842800E-015, -1.776356839400250100E-015, 7.900000000000000400 ) ) ;
#29 = DATE_AND_TIME ( #57, #40 ) ;
#30 = CARTESIAN_POINT ( 'NONE',  ( -38.10000000000000900, 2.889547465351166000E-015, 0.9333512045180382100 ) ) ;
#31 =( BOUNDED_SURFACE ( )  B_SPLINE_SURFACE ( 3, 3, ( 
 ( #101, #122, #143, #62 ),
 ( #107, #210, #121, #171 ),
 ( #193, #126, #124, #85 ),
 ( #63, #86, #159, #27 ) ),
 .UNSPECIFIED., .F., .F., .F. ) 
 B_SPLINE_SURFACE_WITH_KNOTS ( ( 4, 4 ),
 ( 4, 4 ),
 ( 0.0000000000000000000, 1.000000000000000000 ),
 ( 0.0000000000000000000, 1.000000000000000000 ),
 .UNSPECIFIED. ) 
 GEOMETRIC_REPRESENTATION_ITEM ( )  RATIONAL_B_SPLINE_SURFACE ( (
 ( 1.000000000000000000, 0.9997976425212135000, 0.9997976425212135000, 1.000000000000000000),
 ( 0.9991810123626422300, 0.9989788206121291700, 0.9989788206121291700, 0.9991810123626422300),
 ( 0.9991810123626422300, 0.9989788206121291700, 0.9989788206121291700, 0.9991810123626422300),
 ( 1.000000000000000000, 0.9997976425212135000, 0.9997976425212135000, 1.000000000000000000) ) ) 
 REPRESENTATION_ITEM ( '' )  SURFACE ( )  );
#32 = CARTESIAN_POINT ( 'NONE',  ( 38.09999999999999400, -1.776356839400250100E-015, 0.9333512045180379900 ) ) ;
#33 = CC_DESIGN_APPROVAL ( #225, ( #146 ) ) ;
#34 = DIRECTION ( 'NONE',  ( 2.913971193241879900E-018, 1.358596498406960000E-034, 1.000000000000000000 ) ) ;
#35 = ORIENTED_EDGE ( 'NONE', *, *, #77, .F. ) ;
#36 = PERSON_AND_ORGANIZATION_ROLE ( 'creator' ) ;
#37 = CARTESIAN_POINT ( 'NONE',  ( 12.78784303422345100, 12.86281036404706900, -0.3188883058942678100 ) ) ;
#38 = APPLICATION_CONTEXT ( 'configuration controlled 3d designs of mechanical parts and assemblies' ) ;
#39 = UNCERTAINTY_MEASURE_WITH_UNIT (LENGTH_MEASURE( 1.000000000000000100E-005 ), #130, 'distance_accuracy_value', 'NONE');
#40 = LOCAL_TIME ( 9, 6, 29.00000000000000000, #97 ) ;
#41 = CIRCLE ( 'NONE', #10, 38.10000000000000100 ) ;
#42 = COORDINATED_UNIVERSAL_TIME_OFFSET ( 2, 0, .AHEAD. ) ;
#43 = APPROVAL ( #12, 'UNSPECIFIED' ) ;
#44 = ADVANCED_FACE ( 'NONE', ( #202 ), #21, .T. ) ;
#45 = DIRECTION ( 'NONE',  ( -2.913971193241879900E-018, -1.358596498406960000E-034, -1.000000000000000000 ) ) ;
#46 = COORDINATED_UNIVERSAL_TIME_OFFSET ( 2, 0, .AHEAD. ) ;
#47 = FACE_OUTER_BOUND ( 'NONE', #115, .T. ) ;
#48 = PERSON_AND_ORGANIZATION ( #170, #70 ) ;
#49 = DIRECTION ( 'NONE',  ( -2.913971193241879900E-018, -1.358596498406960000E-034, -1.000000000000000000 ) ) ;
#50 = CARTESIAN_POINT ( 'NONE',  ( 3.753557305100656200E-013, -12.86281036404703200, -0.3188883058942626500 ) ) ;
#51 = AXIS2_PLACEMENT_3D ( 'NONE', #172, #49, #212 ) ;
#52 = ORIENTED_EDGE ( 'NONE', *, *, #203, .F. ) ;
#53 = CARTESIAN_POINT ( 'NONE',  ( 25.57180449493324300, 12.86281036404707500, -0.003834597751611098400 ) ) ;
#54 = CARTESIAN_POINT ( 'NONE',  ( 3.676698299341863100E-013, 12.86281036404706600, -0.3188883058942712000 ) ) ;
#55 = PRODUCT_DEFINITION ( 'UNKNOWN', '', #88, #214 ) ;
#56 = ORIENTED_EDGE ( 'NONE', *, *, #151, .T. ) ;
#57 = CALENDAR_DATE ( 2018, 21, 12 ) ;
#58 = VERTEX_POINT ( 'NONE', #204 ) ;
#59 =( BOUNDED_SURFACE ( )  B_SPLINE_SURFACE ( 3, 3, ( 
 ( #128, #189, #175, #9 ),
 ( #50, #209, #224, #176 ),
 ( #54, #37, #53, #233 ),
 ( #67, #64, #112, #150 ) ),
 .UNSPECIFIED., .F., .F., .T. ) 
 B_SPLINE_SURFACE_WITH_KNOTS ( ( 4, 4 ),
 ( 4, 4 ),
 ( 0.0000000000000000000, 1.000000000000000000 ),
 ( 0.0000000000000000000, 1.000000000000000000 ),
 .UNSPECIFIED. ) 
 GEOMETRIC_REPRESENTATION_ITEM ( )  RATIONAL_B_SPLINE_SURFACE ( (
 ( 1.000000000000000000, 0.9997976425212135000, 0.9997976425212135000, 1.000000000000000000),
 ( 0.9991810123626422300, 0.9989788206121291700, 0.9989788206121291700, 0.9991810123626422300),
 ( 0.9991810123626422300, 0.9989788206121291700, 0.9989788206121291700, 0.9991810123626422300),
 ( 1.000000000000000000, 0.9997976425212135000, 0.9997976425212135000, 1.000000000000000000) ) ) 
 REPRESENTATION_ITEM ( '' )  SURFACE ( )  );
#60 = ORIENTED_EDGE ( 'NONE', *, *, #185, .T. ) ;
#61 = ORIENTED_EDGE ( 'NONE', *, *, #77, .T. ) ;
#62 = CARTESIAN_POINT ( 'NONE',  ( 1.942890293094023900E-013, -38.55682764413163700, 0.9558814209421955300 ) ) ;
#63 = CARTESIAN_POINT ( 'NONE',  ( -38.28132972987770400, 38.55682764413165800, 1.899303764720250400 ) ) ;
#64 = CARTESIAN_POINT ( 'NONE',  ( 12.76690115393705800, 38.55682764413168000, 0.9558814209421651100 ) ) ;
#65 = DIRECTION ( 'NONE',  ( 1.000000000000000000, 0.0000000000000000000, 0.0000000000000000000 ) ) ;
#66 = FACE_OUTER_BOUND ( 'NONE', #206, .T. ) ;
#67 = CARTESIAN_POINT ( 'NONE',  ( 3.596642343714624400E-013, 38.55682764413167300, 0.9558814209421617700 ) ) ;
#68 = EDGE_CURVE ( 'NONE', #155, #163, #148, .T. ) ;
#69 = APPLICATION_CONTEXT ( 'configuration controlled 3d designs of mechanical parts and assemblies' ) ;
#70 = ORGANIZATION ( 'UNSPECIFIED', 'UNSPECIFIED', '' ) ;
#71 = CC_DESIGN_SECURITY_CLASSIFICATION ( #146, ( #88 ) ) ;
#72 = VERTEX_POINT ( 'NONE', #99 ) ;
#73 = AXIS2_PLACEMENT_3D ( 'NONE', #105, #20, #140 ) ;
#74 = LOCAL_TIME ( 9, 6, 29.00000000000000000, #42 ) ;
#75 = EDGE_LOOP ( 'NONE', ( #52, #229, #187 ) ) ;
#76 = PERSON_AND_ORGANIZATION ( #170, #70 ) ;
#77 = EDGE_CURVE ( 'NONE', #103, #58, #1, .T. ) ;
#78 = CIRCLE ( 'NONE', #22, 778.1000000000000200 ) ;
#79 = CLOSED_SHELL ( 'NONE', ( #184, #44, #82, #7, #18 ) ) ;
#80 = CARTESIAN_POINT ( 'NONE',  ( 3.598065353754679600E-013, 38.09999999999953200, 0.9333512045180114600 ) ) ;
#81 = AXIS2_PLACEMENT_3D ( 'NONE', #142, #23, #24 ) ;
#82 = ADVANCED_FACE ( 'NONE', ( #98 ), #31, .T. ) ;
#83 = CARTESIAN_POINT ( 'NONE',  ( 38.09999999999999400, -1.776356839400250100E-015, 0.9333512045180379900 ) ) ;
#84 = DATE_AND_TIME ( #139, #211 ) ;
#85 = CARTESIAN_POINT ( 'NONE',  ( 1.734723475976807100E-013, 12.86281036404706400, -0.3188883058942375600 ) ) ;
#86 = CARTESIAN_POINT ( 'NONE',  ( -25.52992709097983600, 38.55682764413166600, 1.270419184603718100 ) ) ;
#87 = DIRECTION ( 'NONE',  ( 1.000000000000000000, 8.881784197001252300E-016, -2.845674993400274200E-018 ) ) ;
#88 = PRODUCT_DEFINITION_FORMATION_WITH_SPECIFIED_SOURCE ( 'ANY', '', #120, .NOT_KNOWN. ) ;
#89 = LINE ( 'NONE', #32, #162 ) ;
#90 = ORIENTED_EDGE ( 'NONE', *, *, #196, .T. ) ;
#91 = CARTESIAN_POINT ( 'NONE',  ( -9.305572792947842800E-015, -1.776356839400250100E-015, 7.900000000000000400 ) ) ;
#92 = APPROVAL_STATUS ( 'not_yet_approved' ) ;
#93 = APPLICATION_PROTOCOL_DEFINITION ( 'international standard', 'config_control_design', 1994, #38 ) ;
#94 = CARTESIAN_POINT ( 'NONE',  ( 0.0000000000000000000, 0.0000000000000000000, 0.0000000000000000000 ) ) ;
#95 = APPROVAL_DATE_TIME ( #199, #160 ) ;
#96 = CC_DESIGN_DATE_AND_TIME_ASSIGNMENT ( #29, #149, ( #55 ) ) ;
#97 = COORDINATED_UNIVERSAL_TIME_OFFSET ( 2, 0, .AHEAD. ) ;
#98 = FACE_OUTER_BOUND ( 'NONE', #75, .T. ) ;
#99 = CARTESIAN_POINT ( 'NONE',  ( 38.09999999999999400, -1.776356839400250100E-015, 7.900000000000000400 ) ) ;
#100 = PRODUCT_RELATED_PRODUCT_CATEGORY ( 'detail', '', ( #120 ) ) ;
#101 = CARTESIAN_POINT ( 'NONE',  ( -38.28132972987767600, -38.55682764413165100, 1.899303764720250400 ) ) ;
#102 = CARTESIAN_POINT ( 'NONE',  ( -9.325873406851310200E-015, -1.776356839400250100E-015, 0.9333512045180379900 ) ) ;
#103 = VERTEX_POINT ( 'NONE', #83 ) ;
#104 = CC_DESIGN_PERSON_AND_ORGANIZATION_ASSIGNMENT ( #186, #230, ( #120 ) ) ;
#105 = CARTESIAN_POINT ( 'NONE',  ( -9.325873406851310200E-015, -1.776356839400250100E-015, 0.9333512045180379900 ) ) ;
#106 = CYLINDRICAL_SURFACE ( 'NONE', #232, 38.10000000000000100 ) ;
#107 = CARTESIAN_POINT ( 'NONE',  ( -38.34412359150005000, -12.86281036404704500, 0.6260815581116934100 ) ) ;
#108 = CC_DESIGN_APPROVAL ( #160, ( #88 ) ) ;
#109 = DIRECTION ( 'NONE',  ( 2.913971193241879900E-018, 1.358596498406960000E-034, 1.000000000000000000 ) ) ;
#110 = APPROVAL_PERSON_ORGANIZATION ( #220, #160, #195 ) ;
#111 = PERSON_AND_ORGANIZATION_ROLE ( 'creator' ) ;
#112 = CARTESIAN_POINT ( 'NONE',  ( 25.52992709097960500, 38.55682764413168000, 1.270419184603641700 ) ) ;
#113 = ADVANCED_BREP_SHAPE_REPRESENTATION ( '110-0740E BK7 pl-cx 76.2 F1500', ( #2, #17 ), #15 ) ;
#114 = EDGE_LOOP ( 'NONE', ( #119, #177 ) ) ;
#115 = EDGE_LOOP ( 'NONE', ( #61, #158, #90 ) ) ;
#116 = CARTESIAN_POINT ( 'NONE',  ( -9.325873406851310200E-015, -1.776356839400250100E-015, 0.9333512045180381000 ) ) ;
#117 = CC_DESIGN_PERSON_AND_ORGANIZATION_ASSIGNMENT ( #76, #36, ( #88 ) ) ;
#118 = APPROVAL_PERSON_ORGANIZATION ( #168, #225, #133 ) ;
#119 = ORIENTED_EDGE ( 'NONE', *, *, #154, .F. ) ;
#120 = PRODUCT ( '110-0740E BK7 pl-cx 76.2 F1500', '110-0740E BK7 pl-cx 76.2 F1500', '', ( #197 ) ) ;
#121 = CARTESIAN_POINT ( 'NONE',  ( -12.78784303422327200, -12.86281036404703600, -0.3188883058942291700 ) ) ;
#122 = CARTESIAN_POINT ( 'NONE',  ( -25.52992709097980800, -38.55682764413165100, 1.270419184603718100 ) ) ;
#123 = CC_DESIGN_APPROVAL ( #43, ( #55 ) ) ;
#124 = CARTESIAN_POINT ( 'NONE',  ( -12.78784303422328600, 12.86281036404706100, -0.3188883058942376100 ) ) ;
#125 = VERTEX_POINT ( 'NONE', #145 ) ;
#126 = CARTESIAN_POINT ( 'NONE',  ( -25.57180449493346000, 12.86281036404705500, -0.003834597751534445300 ) ) ;
#127 = CC_DESIGN_DATE_AND_TIME_ASSIGNMENT ( #144, #178, ( #146 ) ) ;
#128 = CARTESIAN_POINT ( 'NONE',  ( 3.827030521264397900E-013, -38.55682764413163700, 0.9558814209421617700 ) ) ;
#129 = SECURITY_CLASSIFICATION_LEVEL ( 'unclassified' ) ;
#130 =( LENGTH_UNIT ( ) NAMED_UNIT ( * ) SI_UNIT ( .MILLI., .METRE. ) );
#131 = CALENDAR_DATE ( 2018, 21, 12 ) ;
#132 = ORIENTED_EDGE ( 'NONE', *, *, #207, .T. ) ;
#133 = APPROVAL_ROLE ( '' ) ;
#134 = DIRECTION ( 'NONE',  ( 1.000000000000000000, 2.987644363226529900E-016, 2.581932769862619900E-016 ) ) ;
#135 = CALENDAR_DATE ( 2018, 21, 12 ) ;
#136 = CC_DESIGN_PERSON_AND_ORGANIZATION_ASSIGNMENT ( #4, #227, ( #88 ) ) ;
#137 = COORDINATED_UNIVERSAL_TIME_OFFSET ( 2, 0, .AHEAD. ) ;
#138 = CC_DESIGN_PERSON_AND_ORGANIZATION_ASSIGNMENT ( #234, #111, ( #55 ) ) ;
#139 = CALENDAR_DATE ( 2018, 21, 12 ) ;
#140 = DIRECTION ( 'NONE',  ( 1.000000000000000000, 0.0000000000000000000, -2.845674993400274200E-018 ) ) ;
#141 = APPROVAL_PERSON_ORGANIZATION ( #48, #43, #165 ) ;
#142 = CARTESIAN_POINT ( 'NONE',  ( 0.0000000000000000000, 77.92799999999999700, 7.900000000000000400 ) ) ;
#143 = CARTESIAN_POINT ( 'NONE',  ( -12.76690115393688000, -38.55682764413165100, 0.9558814209421953000 ) ) ;
#144 = DATE_AND_TIME ( #131, #19 ) ;
#145 = CARTESIAN_POINT ( 'NONE',  ( -38.10000000000000900, 2.889547465351166000E-015, 7.900000000000000400 ) ) ;
#146 = SECURITY_CLASSIFICATION ( '', '', #129 ) ;
#147 = APPROVAL_DATE_TIME ( #84, #43 ) ;
#148 = CIRCLE ( 'NONE', #218, 38.10000000000000100 ) ;
#149 = DATE_TIME_ROLE ( 'creation_date' ) ;
#150 = CARTESIAN_POINT ( 'NONE',  ( 38.28132972987710000, 38.55682764413168700, 1.899303764720140300 ) ) ;
#151 = EDGE_CURVE ( 'NONE', #155, #125, #26, .T. ) ;
#152 = DIRECTION ( 'NONE',  ( -2.913971193241879900E-018, -1.358596498406960000E-034, -1.000000000000000000 ) ) ;
#153 = VECTOR ( 'NONE', #109, 1000.000000000000000 ) ;
#154 = EDGE_CURVE ( 'NONE', #72, #125, #223, .T. ) ;
#155 = VERTEX_POINT ( 'NONE', #30 ) ;
#156 = AXIS2_PLACEMENT_3D ( 'NONE', #161, #174, #192 ) ;
#157 = ORIENTED_EDGE ( 'NONE', *, *, #154, .T. ) ;
#158 = ORIENTED_EDGE ( 'NONE', *, *, #203, .T. ) ;
#159 = CARTESIAN_POINT ( 'NONE',  ( -12.76690115393690700, 38.55682764413166600, 0.9558814209421954100 ) ) ;
#160 = APPROVAL ( #167, 'UNSPECIFIED' ) ;
#161 = CARTESIAN_POINT ( 'NONE',  ( -9.325873406851310200E-015, -1.776356839400250100E-015, 0.9333512045180381000 ) ) ;
#162 = VECTOR ( 'NONE', #34, 1000.000000000000000 ) ;
#163 = VERTEX_POINT ( 'NONE', #80 ) ;
#164 = DIRECTION ( 'NONE',  ( 1.000000000000000000, 0.0000000000000000000, 0.0000000000000000000 ) ) ;
#165 = APPROVAL_ROLE ( '' ) ;
#166 =( NAMED_UNIT ( * ) PLANE_ANGLE_UNIT ( ) SI_UNIT ( $, .RADIAN. ) );
#167 = APPROVAL_STATUS ( 'not_yet_approved' ) ;
#168 = PERSON_AND_ORGANIZATION ( #170, #70 ) ;
#169 = EDGE_LOOP ( 'NONE', ( #200, #56, #60, #208, #13 ) ) ;
#170 = PERSON ( 'UNSPECIFIED', 'UNSPECIFIED', 'UNSPECIFIED', ('UNSPECIFIED'), ('UNSPECIFIED'), ('UNSPECIFIED') ) ;
#171 = CARTESIAN_POINT ( 'NONE',  ( 1.873501354054951700E-013, -12.86281036404703200, -0.3188883058942289000 ) ) ;
#172 = CARTESIAN_POINT ( 'NONE',  ( -9.325873406851310200E-015, -1.776356839400250100E-015, 0.9333512045180381000 ) ) ;
#173 = PERSON_AND_ORGANIZATION ( #170, #70 ) ;
#174 = DIRECTION ( 'NONE',  ( -2.913971193241879900E-018, -1.358596498406960000E-034, -1.000000000000000000 ) ) ;
#175 = CARTESIAN_POINT ( 'NONE',  ( 25.52992709097963300, -38.55682764413163700, 1.270419184603641400 ) ) ;
#176 = CARTESIAN_POINT ( 'NONE',  ( 38.34412359149948200, -12.86281036404701800, 0.6260815581115831700 ) ) ;
#177 = ORIENTED_EDGE ( 'NONE', *, *, #185, .F. ) ;
#178 = DATE_TIME_ROLE ( 'classification_date' ) ;
#179 = DIRECTION ( 'NONE',  ( -2.913971193241879900E-018, -1.358596498406960000E-034, -1.000000000000000000 ) ) ;
#180 = CARTESIAN_POINT ( 'NONE',  ( 1.705302565824239900E-013, -1.136868377216160000E-013, 778.1000000000000200 ) ) ;
#181 = EDGE_CURVE ( 'NONE', #58, #155, #228, .T. ) ;
#182 = COORDINATED_UNIVERSAL_TIME_OFFSET ( 2, 0, .AHEAD. ) ;
#183 = PERSON_AND_ORGANIZATION_ROLE ( 'classification_officer' ) ;
#184 = ADVANCED_FACE ( 'NONE', ( #47 ), #59, .T. ) ;
#185 = EDGE_CURVE ( 'NONE', #125, #72, #205, .T. ) ;
#186 = PERSON_AND_ORGANIZATION ( #170, #70 ) ;
#187 = ORIENTED_EDGE ( 'NONE', *, *, #68, .T. ) ;
#188 = PLANE ( 'NONE',  #81 ) ;
#189 = CARTESIAN_POINT ( 'NONE',  ( 12.76690115393708200, -38.55682764413163700, 0.9558814209421651100 ) ) ;
#190 = SHAPE_DEFINITION_REPRESENTATION ( #201, #113 ) ;
#191 = CARTESIAN_POINT ( 'NONE',  ( -38.10000000000000900, 2.889547465351166000E-015, 0.9333512045180381000 ) ) ;
#192 = DIRECTION ( 'NONE',  ( 1.000000000000000000, 0.0000000000000000000, -2.845674993400274200E-018 ) ) ;
#193 = CARTESIAN_POINT ( 'NONE',  ( -38.34412359150006500, 12.86281036404705200, 0.6260815581116849800 ) ) ;
#194 = CC_DESIGN_PERSON_AND_ORGANIZATION_ASSIGNMENT ( #173, #183, ( #146 ) ) ;
#195 = APPROVAL_ROLE ( '' ) ;
#196 = EDGE_CURVE ( 'NONE', #163, #103, #41, .T. ) ;
#197 = MECHANICAL_CONTEXT ( 'NONE', #69, 'mechanical' ) ;
#198 = DIRECTION ( 'NONE',  ( 1.000000000000000000, 0.0000000000000000000, 0.0000000000000000000 ) ) ;
#199 = DATE_AND_TIME ( #215, #217 ) ;
#200 = ORIENTED_EDGE ( 'NONE', *, *, #68, .F. ) ;
#201 = PRODUCT_DEFINITION_SHAPE ( 'NONE', 'NONE',  #55 ) ;
#202 = FACE_OUTER_BOUND ( 'NONE', #169, .T. ) ;
#203 = EDGE_CURVE ( 'NONE', #58, #163, #78, .T. ) ;
#204 = CARTESIAN_POINT ( 'NONE',  ( 3.825723854232538400E-013, -38.09999999999963900, 0.9333512045180114600 ) ) ;
#205 = CIRCLE ( 'NONE', #3, 38.10000000000000100 ) ;
#206 = EDGE_LOOP ( 'NONE', ( #8, #6, #35, #132, #157 ) ) ;
#207 = EDGE_CURVE ( 'NONE', #103, #72, #89, .T. ) ;
#208 = ORIENTED_EDGE ( 'NONE', *, *, #207, .F. ) ;
#209 = CARTESIAN_POINT ( 'NONE',  ( 12.78784303422345800, -12.86281036404702700, -0.3188883058942593200 ) ) ;
#210 = CARTESIAN_POINT ( 'NONE',  ( -25.57180449493344600, -12.86281036404704100, -0.003834597751525771700 ) ) ;
#211 = LOCAL_TIME ( 9, 6, 29.00000000000000000, #182 ) ;
#212 = DIRECTION ( 'NONE',  ( 1.000000000000000000, 0.0000000000000000000, -2.845674993400274200E-018 ) ) ;
#213 = AXIS2_PLACEMENT_3D ( 'NONE', #28, #226, #164 ) ;
#214 = DESIGN_CONTEXT ( 'detailed design', #38, 'design' ) ;
#215 = CALENDAR_DATE ( 2018, 21, 12 ) ;
#216 = CARTESIAN_POINT ( 'NONE',  ( -9.325873406851310200E-015, -1.776356839400250100E-015, 0.9333512045180381000 ) ) ;
#217 = LOCAL_TIME ( 9, 6, 29.00000000000000000, #137 ) ;
#218 = AXIS2_PLACEMENT_3D ( 'NONE', #116, #45, #221 ) ;
#219 = FACE_OUTER_BOUND ( 'NONE', #114, .T. ) ;
#220 = PERSON_AND_ORGANIZATION ( #170, #70 ) ;
#221 = DIRECTION ( 'NONE',  ( 1.000000000000000000, 0.0000000000000000000, -2.845674993400274200E-018 ) ) ;
#222 = DIRECTION ( 'NONE',  ( 2.913971193241879900E-018, 1.358596498406960000E-034, 1.000000000000000000 ) ) ;
#223 = CIRCLE ( 'NONE', #213, 38.10000000000000100 ) ;
#224 = CARTESIAN_POINT ( 'NONE',  ( 25.57180449493325000, -12.86281036404702100, -0.003834597751602641200 ) ) ;
#225 = APPROVAL ( #92, 'UNSPECIFIED' ) ;
#226 = DIRECTION ( 'NONE',  ( -2.913971193241879900E-018, -1.358596498406960000E-034, -1.000000000000000000 ) ) ;
#227 = PERSON_AND_ORGANIZATION_ROLE ( 'design_supplier' ) ;
#228 = CIRCLE ( 'NONE', #156, 38.10000000000000100 ) ;
#229 = ORIENTED_EDGE ( 'NONE', *, *, #181, .T. ) ;
#230 = PERSON_AND_ORGANIZATION_ROLE ( 'design_owner' ) ;
#231 =( NAMED_UNIT ( * ) SI_UNIT ( $, .STERADIAN. ) SOLID_ANGLE_UNIT ( ) );
#232 = AXIS2_PLACEMENT_3D ( 'NONE', #102, #222, #5 ) ;
#233 = CARTESIAN_POINT ( 'NONE',  ( 38.34412359149947500, 12.86281036404707800, 0.6260815581115747300 ) ) ;
#234 = PERSON_AND_ORGANIZATION ( #170, #70 ) ;
#235 = APPLICATION_PROTOCOL_DEFINITION ( 'international standard', 'config_control_design', 1994, #69 ) ;
ENDSEC;
END-ISO-10303-21;
