ISO-10303-21;
HEADER;
FILE_DESCRIPTION (( 'STEP AP203' ),
    '1' );
FILE_NAME ('110-0735E BK7 pl-cx 76.2 F1000.STEP',
    '2018-12-21T07:06:40',
    ( '' ),
    ( '' ),
    'SwSTEP 2.0',
    'SolidWorks 2017',
    '' );
FILE_SCHEMA (( 'CONFIG_CONTROL_DESIGN' ));
ENDSEC;

DATA;
#1 = DIRECTION ( 'NONE',  ( 1.000000000000000000, 0.0000000000000000000, -5.691349986800548400E-018 ) ) ;
#2 = PERSON_AND_ORGANIZATION ( #121, #105 ) ;
#3 = DIRECTION ( 'NONE',  ( 0.0000000000000000000, 0.0000000000000000000, 1.000000000000000000 ) ) ;
#4 = CARTESIAN_POINT ( 'NONE',  ( -9.325873406851310200E-015, -1.776356839400250100E-015, 1.401169535441540300 ) ) ;
#5 = CALENDAR_DATE ( 2018, 21, 12 ) ;
#6 = PERSON_AND_ORGANIZATION ( #121, #105 ) ;
#7 = PERSON_AND_ORGANIZATION_ROLE ( 'design_supplier' ) ;
#8 = FACE_OUTER_BOUND ( 'NONE', #192, .T. ) ;
#9 = ORIENTED_EDGE ( 'NONE', *, *, #147, .T. ) ;
#10 =( GEOMETRIC_REPRESENTATION_CONTEXT ( 3 ) GLOBAL_UNCERTAINTY_ASSIGNED_CONTEXT ( ( #145 ) ) GLOBAL_UNIT_ASSIGNED_CONTEXT ( ( #136, #23, #63 ) ) REPRESENTATION_CONTEXT ( 'NONE', 'WORKASPACE' ) );
#11 = FACE_OUTER_BOUND ( 'NONE', #180, .T. ) ;
#12 = CC_DESIGN_DATE_AND_TIME_ASSIGNMENT ( #211, #115, ( #107 ) ) ;
#13 = ORIENTED_EDGE ( 'NONE', *, *, #147, .F. ) ;
#14 = CARTESIAN_POINT ( 'NONE',  ( 25.59614504928462300, -12.87586775780979700, -0.005883877657088211100 ) ) ;
#15 = CARTESIAN_POINT ( 'NONE',  ( -9.285084626131096900E-015, -1.776356839400250100E-015, 8.400000000000000400 ) ) ;
#16 = APPROVAL_DATE_TIME ( #142, #95 ) ;
#17 = COORDINATED_UNIVERSAL_TIME_OFFSET ( 2, 0, .AHEAD. ) ;
#18 = DIRECTION ( 'NONE',  ( 1.000000000000000000, 0.0000000000000000000, 0.0000000000000000000 ) ) ;
#19 = EDGE_CURVE ( 'NONE', #165, #232, #194, .T. ) ;
#20 = CARTESIAN_POINT ( 'NONE',  ( -2.775557561562891400E-014, -12.87586775780980200, -0.4792117482650820000 ) ) ;
#21 = CARTESIAN_POINT ( 'NONE',  ( -12.80244895071476700, -12.87586775780980400, -0.4792117482650812300 ) ) ;
#22 = CARTESIAN_POINT ( 'NONE',  ( -38.10000000000000900, 2.889547465351166000E-015, 1.401169535441540500 ) ) ;
#23 =( NAMED_UNIT ( * ) PLANE_ANGLE_UNIT ( ) SI_UNIT ( $, .RADIAN. ) );
#24 = SHAPE_DEFINITION_REPRESENTATION ( #233, #152 ) ;
#25 = LOCAL_TIME ( 9, 6, 40.00000000000000000, #213 ) ;
#26 = CLOSED_SHELL ( 'NONE', ( #101, #190, #195, #114, #119 ) ) ;
#27 = EDGE_LOOP ( 'NONE', ( #128, #221, #140, #117, #75 ) ) ;
#28 = APPROVAL_DATE_TIME ( #191, #31 ) ;
#29 = EDGE_LOOP ( 'NONE', ( #172, #175 ) ) ;
#30 = CARTESIAN_POINT ( 'NONE',  ( 25.50177296172446600, -38.55636108641205300, 1.906566493171048000 ) ) ;
#31 = APPROVAL ( #82, 'UNSPECIFIED' ) ;
#32 = CARTESIAN_POINT ( 'NONE',  ( -9.325873406851310200E-015, -1.776356839400250100E-015, 1.401169535441540100 ) ) ;
#33 = CC_DESIGN_SECURITY_CLASSIFICATION ( #107, ( #173 ) ) ;
#34 = CARTESIAN_POINT ( 'NONE',  ( 1.034282212515950100E-013, -12.87586775780980400, -0.4792117482650388200 ) ) ;
#35 = PLANE ( 'NONE',  #71 ) ;
#36 = PERSON_AND_ORGANIZATION ( #121, #105 ) ;
#37 = CARTESIAN_POINT ( 'NONE',  ( 25.50177296172445200, 38.55636108641210300, 1.906566493171048000 ) ) ;
#38 = AXIS2_PLACEMENT_3D ( 'NONE', #15, #52, #18 ) ;
#39 = CARTESIAN_POINT ( 'NONE',  ( -38.36359455982091800, 12.87586775780983200, 0.9401246485012497700 ) ) ;
#40 = DIRECTION ( 'NONE',  ( 1.000000000000000000, 0.0000000000000000000, -5.691349986800548400E-018 ) ) ;
#41 = DIRECTION ( 'NONE',  ( 2.240877269159981100E-016, -1.000000000000000000, -4.280790532582056900E-016 ) ) ;
#42 = APPLICATION_CONTEXT ( 'configuration controlled 3d designs of mechanical parts and assemblies' ) ;
#43 = APPLICATION_CONTEXT ( 'configuration controlled 3d designs of mechanical parts and assemblies' ) ;
#44 = AXIS2_PLACEMENT_3D ( 'NONE', #228, #154, #41 ) ;
#45 = APPLICATION_PROTOCOL_DEFINITION ( 'international standard', 'config_control_design', 1994, #42 ) ;
#46 = CC_DESIGN_PERSON_AND_ORGANIZATION_ASSIGNMENT ( #74, #208, ( #88 ) ) ;
#47 = ORIENTED_EDGE ( 'NONE', *, *, #193, .F. ) ;
#48 = FACE_OUTER_BOUND ( 'NONE', #27, .T. ) ;
#49 = PERSON_AND_ORGANIZATION ( #121, #105 ) ;
#50 = CARTESIAN_POINT ( 'NONE',  ( 12.80244895071478200, -12.87586775780980000, -0.4792117482650363700 ) ) ;
#51 = APPROVAL_PERSON_ORGANIZATION ( #155, #95, #206 ) ;
#52 = DIRECTION ( 'NONE',  ( -5.827942386483759700E-018, -2.717192996813919900E-034, -1.000000000000000000 ) ) ;
#53 = CIRCLE ( 'NONE', #182, 38.10000000000000100 ) ;
#54 = DIRECTION ( 'NONE',  ( 1.000000000000000000, 0.0000000000000000000, 0.0000000000000000000 ) ) ;
#55 = CALENDAR_DATE ( 2018, 21, 12 ) ;
#56 = CARTESIAN_POINT ( 'NONE',  ( 12.75524677120551000, 38.55636108641209600, 1.434983765793209600 ) ) ;
#57 = ORIENTED_EDGE ( 'NONE', *, *, #60, .T. ) ;
#58 = CC_DESIGN_PERSON_AND_ORGANIZATION_ASSIGNMENT ( #67, #7, ( #173 ) ) ;
#59 = CARTESIAN_POINT ( 'NONE',  ( 9.153219186951907300E-014, 38.55636108641209600, 1.434983765793207400 ) ) ;
#60 = EDGE_CURVE ( 'NONE', #185, #226, #231, .T. ) ;
#61 = CARTESIAN_POINT ( 'NONE',  ( -12.75524677120551300, 38.55636108641209600, 1.434983765793165700 ) ) ;
#62 = DIRECTION ( 'NONE',  ( 0.0000000000000000000, 0.0000000000000000000, 1.000000000000000000 ) ) ;
#63 =( NAMED_UNIT ( * ) SI_UNIT ( $, .STERADIAN. ) SOLID_ANGLE_UNIT ( ) );
#64 = CALENDAR_DATE ( 2018, 21, 12 ) ;
#65 = EDGE_LOOP ( 'NONE', ( #230, #90, #144 ) ) ;
#66 =( BOUNDED_SURFACE ( )  B_SPLINE_SURFACE ( 3, 3, ( 
 ( #77, #129, #132, #130 ),
 ( #131, #89, #21, #20 ),
 ( #39, #166, #78, #205 ),
 ( #92, #224, #61, #112 ) ),
 .UNSPECIFIED., .F., .F., .F. ) 
 B_SPLINE_SURFACE_WITH_KNOTS ( ( 4, 4 ),
 ( 4, 4 ),
 ( 0.0000000000000000000, 1.000000000000000000 ),
 ( 0.0000000000000000000, 1.000000000000000000 ),
 .UNSPECIFIED. ) 
 GEOMETRIC_REPRESENTATION_ITEM ( )  RATIONAL_B_SPLINE_SURFACE ( (
 ( 1.000000000000000000, 0.9995442094879120100, 0.9995442094879120100, 1.000000000000000000),
 ( 0.9981556663893151900, 0.9977007165069881100, 0.9977007165069881100, 0.9981556663893151900),
 ( 0.9981556663893151900, 0.9977007165069881100, 0.9977007165069881100, 0.9981556663893151900),
 ( 1.000000000000000000, 0.9995442094879120100, 0.9995442094879120100, 1.000000000000000000) ) ) 
 REPRESENTATION_ITEM ( '' )  SURFACE ( )  );
#67 = PERSON_AND_ORGANIZATION ( #121, #105 ) ;
#68 = CARTESIAN_POINT ( 'NONE',  ( -9.325873406851310200E-015, -1.776356839400250100E-015, 1.401169535441540300 ) ) ;
#69 = CC_DESIGN_PERSON_AND_ORGANIZATION_ASSIGNMENT ( #229, #81, ( #107 ) ) ;
#70 = PRODUCT ( '110-0735E BK7 pl-cx 76.2 F1000', '110-0735E BK7 pl-cx 76.2 F1000', '', ( #168 ) ) ;
#71 = AXIS2_PLACEMENT_3D ( 'NONE', #161, #3, #110 ) ;
#72 = DIRECTION ( 'NONE',  ( 5.827942386483759700E-018, 2.717192996813919900E-034, 1.000000000000000000 ) ) ;
#73 = DIRECTION ( 'NONE',  ( 5.827942386483759700E-018, 2.717192996813919900E-034, 1.000000000000000000 ) ) ;
#74 = PERSON_AND_ORGANIZATION ( #121, #105 ) ;
#75 = ORIENTED_EDGE ( 'NONE', *, *, #76, .F. ) ;
#76 = EDGE_CURVE ( 'NONE', #226, #103, #85, .T. ) ;
#77 = CARTESIAN_POINT ( 'NONE',  ( -38.22214933445783200, -38.55636108641206800, 2.849087119128346200 ) ) ;
#78 = CARTESIAN_POINT ( 'NONE',  ( -12.80244895071476700, 12.87586775780983900, -0.4792117482650822800 ) ) ;
#79 = APPROVAL_STATUS ( 'not_yet_approved' ) ;
#80 = LOCAL_TIME ( 9, 6, 40.00000000000000000, #123 ) ;
#81 = PERSON_AND_ORGANIZATION_ROLE ( 'classification_officer' ) ;
#82 = APPROVAL_STATUS ( 'not_yet_approved' ) ;
#83 = CIRCLE ( 'NONE', #171, 38.10000000000000100 ) ;
#84 = EDGE_CURVE ( 'NONE', #103, #232, #97, .T. ) ;
#85 = CIRCLE ( 'NONE', #100, 38.10000000000000100 ) ;
#86 = AXIS2_PLACEMENT_3D ( 'NONE', #68, #177, #106 ) ;
#87 = DIRECTION ( 'NONE',  ( 1.000000000000000000, 0.0000000000000000000, -5.691349986800548400E-018 ) ) ;
#88 = PRODUCT_DEFINITION ( 'UNKNOWN', '', #173, #216 ) ;
#89 = CARTESIAN_POINT ( 'NONE',  ( -25.59614504928465800, -12.87586775780980700, -0.005883877657088536400 ) ) ;
#90 = ORIENTED_EDGE ( 'NONE', *, *, #196, .T. ) ;
#91 = CARTESIAN_POINT ( 'NONE',  ( -38.10000000000000900, 2.889547465351166000E-015, 1.401169535441540300 ) ) ;
#92 = CARTESIAN_POINT ( 'NONE',  ( -38.22214933445784600, 38.55636108641208900, 2.849087119128346200 ) ) ;
#93 = AXIS2_PLACEMENT_3D ( 'NONE', #202, #94, #143 ) ;
#94 = DIRECTION ( 'NONE',  ( 5.827942386483759700E-018, 2.717192996813919900E-034, 1.000000000000000000 ) ) ;
#95 = APPROVAL ( #79, 'UNSPECIFIED' ) ;
#96 = CARTESIAN_POINT ( 'NONE',  ( 1.087164899550253300E-013, -38.10000000000031400, 1.401169535441550100 ) ) ;
#97 = LINE ( 'NONE', #160, #116 ) ;
#98 = VECTOR ( 'NONE', #73, 1000.000000000000000 ) ;
#99 = CYLINDRICAL_SURFACE ( 'NONE', #93, 38.10000000000000100 ) ;
#100 = AXIS2_PLACEMENT_3D ( 'NONE', #199, #141, #87 ) ;
#101 = ADVANCED_FACE ( 'NONE', ( #219 ), #138, .T. ) ;
#102 = LOCAL_TIME ( 9, 6, 40.00000000000000000, #17 ) ;
#103 = VERTEX_POINT ( 'NONE', #158 ) ;
#104 = PRODUCT_RELATED_PRODUCT_CATEGORY ( 'detail', '', ( #70 ) ) ;
#105 = ORGANIZATION ( 'UNSPECIFIED', 'UNSPECIFIED', '' ) ;
#106 = DIRECTION ( 'NONE',  ( 1.000000000000000000, 0.0000000000000000000, -5.691349986800548400E-018 ) ) ;
#107 = SECURITY_CLASSIFICATION ( '', '', #133 ) ;
#108 = LOCAL_TIME ( 9, 6, 40.00000000000000000, #120 ) ;
#109 = CARTESIAN_POINT ( 'NONE',  ( -9.285084626131096900E-015, -1.776356839400250100E-015, 8.400000000000000400 ) ) ;
#110 = DIRECTION ( 'NONE',  ( 1.000000000000000000, 0.0000000000000000000, -0.0000000000000000000 ) ) ;
#111 = LINE ( 'NONE', #91, #98 ) ;
#112 = CARTESIAN_POINT ( 'NONE',  ( -3.469446951953614200E-014, 38.55636108641209600, 1.434983765793165200 ) ) ;
#113 = DATE_TIME_ROLE ( 'creation_date' ) ;
#114 = ADVANCED_FACE ( 'NONE', ( #8 ), #188, .T. ) ;
#115 = DATE_TIME_ROLE ( 'classification_date' ) ;
#116 = VECTOR ( 'NONE', #72, 1000.000000000000000 ) ;
#117 = ORIENTED_EDGE ( 'NONE', *, *, #84, .F. ) ;
#118 = DATE_AND_TIME ( #204, #102 ) ;
#119 = ADVANCED_FACE ( 'NONE', ( #197 ), #35, .T. ) ;
#120 = COORDINATED_UNIVERSAL_TIME_OFFSET ( 2, 0, .AHEAD. ) ;
#121 = PERSON ( 'UNSPECIFIED', 'UNSPECIFIED', 'UNSPECIFIED', ('UNSPECIFIED'), ('UNSPECIFIED'), ('UNSPECIFIED') ) ;
#122 = CARTESIAN_POINT ( 'NONE',  ( 38.22214933445774700, -38.55636108641205300, 2.849087119128339600 ) ) ;
#123 = COORDINATED_UNIVERSAL_TIME_OFFSET ( 2, 0, .AHEAD. ) ;
#124 = CARTESIAN_POINT ( 'NONE',  ( 12.75524677120552600, -38.55636108641206100, 1.434983765793209600 ) ) ;
#125 = EDGE_CURVE ( 'NONE', #103, #217, #179, .T. ) ;
#126 = DIRECTION ( 'NONE',  ( -5.827942386483759700E-018, -2.717192996813919900E-034, -1.000000000000000000 ) ) ;
#127 = LOCAL_TIME ( 9, 6, 40.00000000000000000, #174 ) ;
#128 = ORIENTED_EDGE ( 'NONE', *, *, #60, .F. ) ;
#129 = CARTESIAN_POINT ( 'NONE',  ( -25.50177296172448700, -38.55636108641206800, 1.906566493171047500 ) ) ;
#130 = CARTESIAN_POINT ( 'NONE',  ( -2.081668171172168500E-014, -38.55636108641206100, 1.434983765793164300 ) ) ;
#131 = CARTESIAN_POINT ( 'NONE',  ( -38.36359455982091800, -12.87586775780981100, 0.9401246485012514400 ) ) ;
#132 = CARTESIAN_POINT ( 'NONE',  ( -12.75524677120549900, -38.55636108641206100, 1.434983765793164800 ) ) ;
#133 = SECURITY_CLASSIFICATION_LEVEL ( 'unclassified' ) ;
#134 = APPROVAL_PERSON_ORGANIZATION ( #2, #31, #189 ) ;
#135 = MANIFOLD_SOLID_BREP ( 'Imported1', #26 ) ;
#136 =( LENGTH_UNIT ( ) NAMED_UNIT ( * ) SI_UNIT ( .MILLI., .METRE. ) );
#137 = CC_DESIGN_APPROVAL ( #95, ( #107 ) ) ;
#138 =( BOUNDED_SURFACE ( )  B_SPLINE_SURFACE ( 3, 3, ( 
 ( #234, #124, #30, #122 ),
 ( #34, #50, #14, #218 ),
 ( #181, #220, #148, #184 ),
 ( #59, #56, #37, #235 ) ),
 .UNSPECIFIED., .F., .F., .F. ) 
 B_SPLINE_SURFACE_WITH_KNOTS ( ( 4, 4 ),
 ( 4, 4 ),
 ( 0.0000000000000000000, 1.000000000000000000 ),
 ( 0.0000000000000000000, 1.000000000000000000 ),
 .UNSPECIFIED. ) 
 GEOMETRIC_REPRESENTATION_ITEM ( )  RATIONAL_B_SPLINE_SURFACE ( (
 ( 1.000000000000000000, 0.9995442094879120100, 0.9995442094879120100, 1.000000000000000000),
 ( 0.9981556663893151900, 0.9977007165069881100, 0.9977007165069881100, 0.9981556663893151900),
 ( 0.9981556663893151900, 0.9977007165069881100, 0.9977007165069881100, 0.9981556663893151900),
 ( 1.000000000000000000, 0.9995442094879120100, 0.9995442094879120100, 1.000000000000000000) ) ) 
 REPRESENTATION_ITEM ( '' )  SURFACE ( )  );
#139 = AXIS2_PLACEMENT_3D ( 'NONE', #209, #62, #207 ) ;
#140 = ORIENTED_EDGE ( 'NONE', *, *, #19, .T. ) ;
#141 = DIRECTION ( 'NONE',  ( -5.827942386483759700E-018, -2.717192996813919900E-034, -1.000000000000000000 ) ) ;
#142 = DATE_AND_TIME ( #5, #80 ) ;
#143 = DIRECTION ( 'NONE',  ( 1.000000000000000000, 0.0000000000000000000, -5.691349986800548400E-018 ) ) ;
#144 = ORIENTED_EDGE ( 'NONE', *, *, #76, .T. ) ;
#145 = UNCERTAINTY_MEASURE_WITH_UNIT (LENGTH_MEASURE( 1.000000000000000100E-005 ), #136, 'distance_accuracy_value', 'NONE');
#146 = DIRECTION ( 'NONE',  ( 5.827942386483759700E-018, 2.717192996813919900E-034, 1.000000000000000000 ) ) ;
#147 = EDGE_CURVE ( 'NONE', #217, #185, #83, .T. ) ;
#148 = CARTESIAN_POINT ( 'NONE',  ( 25.59614504928461500, 12.87586775780984600, -0.005883877657089729000 ) ) ;
#149 = ORIENTED_EDGE ( 'NONE', *, *, #196, .F. ) ;
#150 = DIRECTION ( 'NONE',  ( 1.000000000000000000, 0.0000000000000000000, -5.691349986800548400E-018 ) ) ;
#151 = CALENDAR_DATE ( 2018, 21, 12 ) ;
#152 = ADVANCED_BREP_SHAPE_REPRESENTATION ( '110-0735E BK7 pl-cx 76.2 F1000', ( #135, #139 ), #10 ) ;
#153 = CC_DESIGN_PERSON_AND_ORGANIZATION_ASSIGNMENT ( #49, #169, ( #70 ) ) ;
#154 = DIRECTION ( 'NONE',  ( 1.000000000000000000, 2.240877269159980100E-016, 1.936574019886349900E-016 ) ) ;
#155 = PERSON_AND_ORGANIZATION ( #121, #105 ) ;
#156 = EDGE_CURVE ( 'NONE', #232, #165, #53, .T. ) ;
#157 = AXIS2_PLACEMENT_3D ( 'NONE', #222, #126, #1 ) ;
#158 = CARTESIAN_POINT ( 'NONE',  ( 38.09999999999999400, -1.776356839400250100E-015, 1.401169535441540100 ) ) ;
#159 = APPROVAL_PERSON_ORGANIZATION ( #6, #201, #210 ) ;
#160 = CARTESIAN_POINT ( 'NONE',  ( 38.09999999999999400, -1.776356839400250100E-015, 1.401169535441539900 ) ) ;
#161 = CARTESIAN_POINT ( 'NONE',  ( 0.0000000000000000000, 77.92799999999999700, 8.400000000000000400 ) ) ;
#162 = CC_DESIGN_APPROVAL ( #31, ( #88 ) ) ;
#163 = APPROVAL_DATE_TIME ( #118, #201 ) ;
#164 = DIRECTION ( 'NONE',  ( -5.827942386483759700E-018, -2.717192996813919900E-034, -1.000000000000000000 ) ) ;
#165 = VERTEX_POINT ( 'NONE', #200 ) ;
#166 = CARTESIAN_POINT ( 'NONE',  ( -25.59614504928465800, 12.87586775780983600, -0.005883877657090269400 ) ) ;
#167 = CIRCLE ( 'NONE', #44, 518.7000000000000500 ) ;
#168 = MECHANICAL_CONTEXT ( 'NONE', #42, 'mechanical' ) ;
#169 = PERSON_AND_ORGANIZATION_ROLE ( 'design_owner' ) ;
#170 = ORIENTED_EDGE ( 'NONE', *, *, #84, .T. ) ;
#171 = AXIS2_PLACEMENT_3D ( 'NONE', #4, #183, #40 ) ;
#172 = ORIENTED_EDGE ( 'NONE', *, *, #156, .F. ) ;
#173 = PRODUCT_DEFINITION_FORMATION_WITH_SPECIFIED_SOURCE ( 'ANY', '', #70, .NOT_KNOWN. ) ;
#174 = COORDINATED_UNIVERSAL_TIME_OFFSET ( 2, 0, .AHEAD. ) ;
#175 = ORIENTED_EDGE ( 'NONE', *, *, #19, .F. ) ;
#176 = ORIENTED_EDGE ( 'NONE', *, *, #125, .F. ) ;
#177 = DIRECTION ( 'NONE',  ( -5.827942386483759700E-018, -2.717192996813919900E-034, -1.000000000000000000 ) ) ;
#178 = AXIS2_PLACEMENT_3D ( 'NONE', #32, #146, #150 ) ;
#179 = CIRCLE ( 'NONE', #157, 38.10000000000000100 ) ;
#180 = EDGE_LOOP ( 'NONE', ( #149, #9, #57 ) ) ;
#181 = CARTESIAN_POINT ( 'NONE',  ( 9.765757337575781100E-014, 12.87586775780983900, -0.4792117482650405400 ) ) ;
#182 = AXIS2_PLACEMENT_3D ( 'NONE', #109, #164, #54 ) ;
#183 = DIRECTION ( 'NONE',  ( -5.827942386483759700E-018, -2.717192996813919900E-034, -1.000000000000000000 ) ) ;
#184 = CARTESIAN_POINT ( 'NONE',  ( 38.36359455982081800, 12.87586775780984800, 0.9401246485012431100 ) ) ;
#185 = VERTEX_POINT ( 'NONE', #22 ) ;
#186 = PERSON_AND_ORGANIZATION_ROLE ( 'creator' ) ;
#187 = APPLICATION_PROTOCOL_DEFINITION ( 'international standard', 'config_control_design', 1994, #43 ) ;
#188 = CYLINDRICAL_SURFACE ( 'NONE', #178, 38.10000000000000100 ) ;
#189 = APPROVAL_ROLE ( '' ) ;
#190 = ADVANCED_FACE ( 'NONE', ( #48 ), #99, .T. ) ;
#191 = DATE_AND_TIME ( #55, #108 ) ;
#192 = EDGE_LOOP ( 'NONE', ( #47, #13, #176, #170, #198 ) ) ;
#193 = EDGE_CURVE ( 'NONE', #185, #165, #111, .T. ) ;
#194 = CIRCLE ( 'NONE', #38, 38.10000000000000100 ) ;
#195 = ADVANCED_FACE ( 'NONE', ( #11 ), #66, .T. ) ;
#196 = EDGE_CURVE ( 'NONE', #217, #226, #167, .T. ) ;
#197 = FACE_OUTER_BOUND ( 'NONE', #29, .T. ) ;
#198 = ORIENTED_EDGE ( 'NONE', *, *, #156, .T. ) ;
#199 = CARTESIAN_POINT ( 'NONE',  ( -9.325873406851310200E-015, -1.776356839400250100E-015, 1.401169535441540300 ) ) ;
#200 = CARTESIAN_POINT ( 'NONE',  ( -38.10000000000000900, 2.889547465351166000E-015, 8.400000000000000400 ) ) ;
#201 = APPROVAL ( #227, 'UNSPECIFIED' ) ;
#202 = CARTESIAN_POINT ( 'NONE',  ( -9.325873406851310200E-015, -1.776356839400250100E-015, 1.401169535441540100 ) ) ;
#203 = CARTESIAN_POINT ( 'NONE',  ( 38.09999999999999400, -1.776356839400250100E-015, 8.400000000000000400 ) ) ;
#204 = CALENDAR_DATE ( 2018, 21, 12 ) ;
#205 = CARTESIAN_POINT ( 'NONE',  ( -2.775557561562891400E-014, 12.87586775780984300, -0.4792117482650829500 ) ) ;
#206 = APPROVAL_ROLE ( '' ) ;
#207 = DIRECTION ( 'NONE',  ( 1.000000000000000000, 0.0000000000000000000, 0.0000000000000000000 ) ) ;
#208 = PERSON_AND_ORGANIZATION_ROLE ( 'creator' ) ;
#209 = CARTESIAN_POINT ( 'NONE',  ( 0.0000000000000000000, 0.0000000000000000000, 0.0000000000000000000 ) ) ;
#210 = APPROVAL_ROLE ( '' ) ;
#211 = DATE_AND_TIME ( #64, #127 ) ;
#212 = CC_DESIGN_DATE_AND_TIME_ASSIGNMENT ( #215, #113, ( #88 ) ) ;
#213 = COORDINATED_UNIVERSAL_TIME_OFFSET ( 2, 0, .AHEAD. ) ;
#214 = CC_DESIGN_PERSON_AND_ORGANIZATION_ASSIGNMENT ( #36, #186, ( #173 ) ) ;
#215 = DATE_AND_TIME ( #151, #25 ) ;
#216 = DESIGN_CONTEXT ( 'detailed design', #43, 'design' ) ;
#217 = VERTEX_POINT ( 'NONE', #96 ) ;
#218 = CARTESIAN_POINT ( 'NONE',  ( 38.36359455982082500, -12.87586775780979700, 0.9401246485012448900 ) ) ;
#219 = FACE_OUTER_BOUND ( 'NONE', #65, .T. ) ;
#220 = CARTESIAN_POINT ( 'NONE',  ( 12.80244895071477500, 12.87586775780984300, -0.4792117482650381500 ) ) ;
#221 = ORIENTED_EDGE ( 'NONE', *, *, #193, .T. ) ;
#222 = CARTESIAN_POINT ( 'NONE',  ( -9.325873406851310200E-015, -1.776356839400250100E-015, 1.401169535441540300 ) ) ;
#223 = CC_DESIGN_APPROVAL ( #201, ( #173 ) ) ;
#224 = CARTESIAN_POINT ( 'NONE',  ( -25.50177296172450200, 38.55636108641208900, 1.906566493171047500 ) ) ;
#225 = CARTESIAN_POINT ( 'NONE',  ( 9.164100516402614700E-014, 38.10000000000031400, 1.401169535441550100 ) ) ;
#226 = VERTEX_POINT ( 'NONE', #225 ) ;
#227 = APPROVAL_STATUS ( 'not_yet_approved' ) ;
#228 = CARTESIAN_POINT ( 'NONE',  ( 0.0000000000000000000, 0.0000000000000000000, 518.7000000000000500 ) ) ;
#229 = PERSON_AND_ORGANIZATION ( #121, #105 ) ;
#230 = ORIENTED_EDGE ( 'NONE', *, *, #125, .T. ) ;
#231 = CIRCLE ( 'NONE', #86, 38.10000000000000100 ) ;
#232 = VERTEX_POINT ( 'NONE', #203 ) ;
#233 = PRODUCT_DEFINITION_SHAPE ( 'NONE', 'NONE',  #88 ) ;
#234 = CARTESIAN_POINT ( 'NONE',  ( 1.088122064975321200E-013, -38.55636108641206100, 1.434983765793207400 ) ) ;
#235 = CARTESIAN_POINT ( 'NONE',  ( 38.22214933445774000, 38.55636108641210300, 2.849087119128339600 ) ) ;
ENDSEC;
END-ISO-10303-21;
