ISO-10303-21;
HEADER;
FILE_DESCRIPTION (( 'STEP AP203' ),
    '1' );
FILE_NAME ('110-0730E BK7 pl-cx 76.2 F750.STEP',
    '2018-12-21T07:06:51',
    ( '' ),
    ( '' ),
    'SwSTEP 2.0',
    'SolidWorks 2017',
    '' );
FILE_SCHEMA (( 'CONFIG_CONTROL_DESIGN' ));
ENDSEC;

DATA;
#1 = ORIENTED_EDGE ( 'NONE', *, *, #210, .T. ) ;
#2 = CARTESIAN_POINT ( 'NONE',  ( -1.136868377216160000E-013, 0.0000000000000000000, 389.0000000000000000 ) ) ;
#3 =( NAMED_UNIT ( * ) SI_UNIT ( $, .STERADIAN. ) SOLID_ANGLE_UNIT ( ) );
#4 = DIRECTION ( 'NONE',  ( 1.000000000000000000, -2.988028379211529900E-016, -2.582264637827899900E-016 ) ) ;
#5 = CALENDAR_DATE ( 2018, 21, 12 ) ;
#6 = CC_DESIGN_APPROVAL ( #99, ( #213 ) ) ;
#7 = CALENDAR_DATE ( 2018, 21, 12 ) ;
#8 = ORIENTED_EDGE ( 'NONE', *, *, #175, .T. ) ;
#9 = COORDINATED_UNIVERSAL_TIME_OFFSET ( 2, 0, .AHEAD. ) ;
#10 = ORIENTED_EDGE ( 'NONE', *, *, #11, .T. ) ;
#11 = EDGE_CURVE ( 'NONE', #98, #108, #110, .T. ) ;
#12 = CARTESIAN_POINT ( 'NONE',  ( 12.73887467576983900, -38.55570589337291700, 1.915438769428897900 ) ) ;
#13 = CARTESIAN_POINT ( 'NONE',  ( 12.82299281622838700, -12.89422948297279700, -0.6405824113791083200 ) ) ;
#14 = ORIENTED_EDGE ( 'NONE', *, *, #192, .F. ) ;
#15 = CARTESIAN_POINT ( 'NONE',  ( 25.63037747540500900, -12.89422948297280100, -0.008092919815753853900 ) ) ;
#16 = SECURITY_CLASSIFICATION ( '', '', #185 ) ;
#17 = CARTESIAN_POINT ( 'NONE',  ( 38.13913293265448300, 38.55570589337292400, 3.798930320528567600 ) ) ;
#18 = CARTESIAN_POINT ( 'NONE',  ( -25.63037747540541700, -12.89422948297278500, -0.008092919815793318800 ) ) ;
#19 = CARTESIAN_POINT ( 'NONE',  ( 38.09999999999999400, -1.776356839400250100E-015, 8.900000000000000400 ) ) ;
#20 = DATE_AND_TIME ( #7, #154 ) ;
#21 = PERSON_AND_ORGANIZATION_ROLE ( 'classification_officer' ) ;
#22 = MECHANICAL_CONTEXT ( 'NONE', #96, 'mechanical' ) ;
#23 = LINE ( 'NONE', #187, #170 ) ;
#24 = LOCAL_TIME ( 9, 6, 51.00000000000000000, #50 ) ;
#25 = ORIENTED_EDGE ( 'NONE', *, *, #194, .F. ) ;
#26 = AXIS2_PLACEMENT_3D ( 'NONE', #106, #121, #195 ) ;
#27 = DATE_AND_TIME ( #44, #78 ) ;
#28 = DESIGN_CONTEXT ( 'detailed design', #227, 'design' ) ;
#29 = VECTOR ( 'NONE', #58, 1000.000000000000000 ) ;
#30 = CARTESIAN_POINT ( 'NONE',  ( -38.13913293265481700, -38.55570589337289500, 3.798930320528470800 ) ) ;
#31 = CARTESIAN_POINT ( 'NONE',  ( -38.13913293265478900, 38.55570589337294500, 3.798930320528526300 ) ) ;
#32 = AXIS2_PLACEMENT_3D ( 'NONE', #107, #202, #71 ) ;
#33 = DIRECTION ( 'NONE',  ( 1.000000000000000000, 0.0000000000000000000, 0.0000000000000000000 ) ) ;
#34 = DIRECTION ( 'NONE',  ( 1.000000000000000000, 0.0000000000000000000, -5.691349986800548400E-018 ) ) ;
#35 = CARTESIAN_POINT ( 'NONE',  ( -25.46224358315575000, 38.55570589337294500, 2.543779164080778500 ) ) ;
#36 = PLANE ( 'NONE',  #135 ) ;
#37 = PERSON_AND_ORGANIZATION_ROLE ( 'design_owner' ) ;
#38 = APPLICATION_PROTOCOL_DEFINITION ( 'international standard', 'config_control_design', 1994, #96 ) ;
#39 = APPLICATION_PROTOCOL_DEFINITION ( 'international standard', 'config_control_design', 1994, #227 ) ;
#40 = CC_DESIGN_PERSON_AND_ORGANIZATION_ASSIGNMENT ( #73, #21, ( #16 ) ) ;
#41 = PERSON_AND_ORGANIZATION ( #149, #230 ) ;
#42 = ADVANCED_FACE ( 'NONE', ( #132 ), #102, .T. ) ;
#43 = APPROVAL_PERSON_ORGANIZATION ( #77, #164, #225 ) ;
#44 = CALENDAR_DATE ( 2018, 21, 12 ) ;
#45 = ORIENTED_EDGE ( 'NONE', *, *, #112, .T. ) ;
#46 = AXIS2_PLACEMENT_3D ( 'NONE', #109, #93, #53 ) ;
#47 = ORIENTED_EDGE ( 'NONE', *, *, #192, .T. ) ;
#48 = CARTESIAN_POINT ( 'NONE',  ( -12.73887467577028900, 38.55570589337295200, 1.915438769428931400 ) ) ;
#49 = CARTESIAN_POINT ( 'NONE',  ( -38.10000000000000900, 2.889547465351166000E-015, 8.900000000000000400 ) ) ;
#50 = COORDINATED_UNIVERSAL_TIME_OFFSET ( 2, 0, .AHEAD. ) ;
#51 = CARTESIAN_POINT ( 'NONE',  ( -12.82299281622884000, 12.89422948297283100, -0.6405824113790769000 ) ) ;
#52 = DIRECTION ( 'NONE',  ( 1.000000000000000000, 0.0000000000000000000, -5.691349986800548400E-018 ) ) ;
#53 = DIRECTION ( 'NONE',  ( 1.000000000000000000, 0.0000000000000000000, -5.691349986800548400E-018 ) ) ;
#54 = DIRECTION ( 'NONE',  ( 1.000000000000000000, 0.0000000000000000000, 0.0000000000000000000 ) ) ;
#55 = PERSON_AND_ORGANIZATION_ROLE ( 'creator' ) ;
#56 = CARTESIAN_POINT ( 'NONE',  ( 0.0000000000000000000, 0.0000000000000000000, 0.0000000000000000000 ) ) ;
#57 = FACE_OUTER_BOUND ( 'NONE', #148, .T. ) ;
#58 = DIRECTION ( 'NONE',  ( 5.827942386483759700E-018, 2.717192996813919900E-034, 1.000000000000000000 ) ) ;
#59 = CC_DESIGN_PERSON_AND_ORGANIZATION_ASSIGNMENT ( #155, #37, ( #167 ) ) ;
#60 = AXIS2_PLACEMENT_3D ( 'NONE', #205, #168, #151 ) ;
#61 = APPROVAL_DATE_TIME ( #20, #164 ) ;
#62 = VERTEX_POINT ( 'NONE', #231 ) ;
#63 = EDGE_LOOP ( 'NONE', ( #208, #45, #1 ) ) ;
#64 = CC_DESIGN_DATE_AND_TIME_ASSIGNMENT ( #119, #76, ( #16 ) ) ;
#65 = LINE ( 'NONE', #223, #29 ) ;
#66 = CARTESIAN_POINT ( 'NONE',  ( 25.46224358315536300, -38.55570589337291700, 2.543779164080762100 ) ) ;
#67 = AXIS2_PLACEMENT_3D ( 'NONE', #143, #147, #34 ) ;
#68 = ORIENTED_EDGE ( 'NONE', *, *, #117, .F. ) ;
#69 = CARTESIAN_POINT ( 'NONE',  ( -3.122502256758251800E-013, -12.89422948297279200, -0.6405824113791378500 ) ) ;
#70 = CC_DESIGN_APPROVAL ( #104, ( #80 ) ) ;
#71 = DIRECTION ( 'NONE',  ( 1.000000000000000000, -8.881784197001252300E-016, -5.691349986800548400E-018 ) ) ;
#72 = CARTESIAN_POINT ( 'NONE',  ( -2.983724378680107700E-013, 12.89422948297282700, -0.6405824113790832300 ) ) ;
#73 = PERSON_AND_ORGANIZATION ( #149, #230 ) ;
#74 = DIRECTION ( 'NONE',  ( 5.827942386483759700E-018, 2.717192996813919900E-034, 1.000000000000000000 ) ) ;
#75 =( NAMED_UNIT ( * ) PLANE_ANGLE_UNIT ( ) SI_UNIT ( $, .RADIAN. ) );
#76 = DATE_TIME_ROLE ( 'classification_date' ) ;
#77 = PERSON_AND_ORGANIZATION ( #149, #230 ) ;
#78 = LOCAL_TIME ( 9, 6, 51.00000000000000000, #127 ) ;
#79 = CLOSED_SHELL ( 'NONE', ( #129, #42, #95, #111, #186 ) ) ;
#80 = PRODUCT_DEFINITION ( 'UNKNOWN', '', #213, #28 ) ;
#81 = EDGE_CURVE ( 'NONE', #108, #98, #105, .T. ) ;
#82 = FACE_OUTER_BOUND ( 'NONE', #203, .T. ) ;
#83 = ORIENTED_EDGE ( 'NONE', *, *, #210, .F. ) ;
#84 = FACE_OUTER_BOUND ( 'NONE', #131, .T. ) ;
#85 = CARTESIAN_POINT ( 'NONE',  ( -12.82299281622885600, -12.89422948297278800, -0.6405824113791313000 ) ) ;
#86 = PERSON_AND_ORGANIZATION ( #149, #230 ) ;
#87 = CARTESIAN_POINT ( 'NONE',  ( 38.39097565994798300, 12.89422948297281500, 1.255346329886911400 ) ) ;
#88 = AXIS2_PLACEMENT_3D ( 'NONE', #2, #4, #183 ) ;
#89 = CARTESIAN_POINT ( 'NONE',  ( -2.104495151016543000E-013, 12.89422948297282500, -0.6405824113790517000 ) ) ;
#90 = CARTESIAN_POINT ( 'NONE',  ( -2.914335439641035900E-013, 38.55570589337293800, 1.915438769428925000 ) ) ;
#91 = PERSON_AND_ORGANIZATION_ROLE ( 'design_supplier' ) ;
#92 = CALENDAR_DATE ( 2018, 21, 12 ) ;
#93 = DIRECTION ( 'NONE',  ( -5.827942386483759700E-018, -2.717192996813919900E-034, -1.000000000000000000 ) ) ;
#94 = CARTESIAN_POINT ( 'NONE',  ( 38.09999999999999400, -1.776356839400250100E-015, 1.870318885260410000 ) ) ;
#95 = ADVANCED_FACE ( 'NONE', ( #215 ), #212, .T. ) ;
#96 = APPLICATION_CONTEXT ( 'configuration controlled 3d designs of mechanical parts and assemblies' ) ;
#97 = APPROVAL_PERSON_ORGANIZATION ( #86, #99, #125 ) ;
#98 = VERTEX_POINT ( 'NONE', #19 ) ;
#99 = APPROVAL ( #171, 'UNSPECIFIED' ) ;
#100 = VERTEX_POINT ( 'NONE', #138 ) ;
#101 = ADVANCED_BREP_SHAPE_REPRESENTATION ( '110-0730E BK7 pl-cx 76.2 F750', ( #145, #234 ), #142 ) ;
#102 = CYLINDRICAL_SURFACE ( 'NONE', #67, 38.10000000000000100 ) ;
#103 = CARTESIAN_POINT ( 'NONE',  ( -9.325873406851310200E-015, -1.776356839400250100E-015, 1.870318885260410000 ) ) ;
#104 = APPROVAL ( #169, 'UNSPECIFIED' ) ;
#105 = CIRCLE ( 'NONE', #179, 38.10000000000000100 ) ;
#106 = CARTESIAN_POINT ( 'NONE',  ( -9.325873406851310200E-015, -1.776356839400250100E-015, 1.870318885260410200 ) ) ;
#107 = CARTESIAN_POINT ( 'NONE',  ( -9.325873406851310200E-015, -1.776356839400250100E-015, 1.870318885260410200 ) ) ;
#108 = VERTEX_POINT ( 'NONE', #49 ) ;
#109 = CARTESIAN_POINT ( 'NONE',  ( -9.325873406851310200E-015, -1.776356839400250100E-015, 1.870318885260410200 ) ) ;
#110 = CIRCLE ( 'NONE', #158, 38.10000000000000100 ) ;
#111 = ADVANCED_FACE ( 'NONE', ( #84 ), #188, .T. ) ;
#112 = EDGE_CURVE ( 'NONE', #159, #100, #113, .T. ) ;
#113 = CIRCLE ( 'NONE', #26, 38.10000000000000100 ) ;
#114 = ORIENTED_EDGE ( 'NONE', *, *, #117, .T. ) ;
#115 = ORIENTED_EDGE ( 'NONE', *, *, #194, .T. ) ;
#116 = CC_DESIGN_PERSON_AND_ORGANIZATION_ASSIGNMENT ( #41, #55, ( #80 ) ) ;
#117 = EDGE_CURVE ( 'NONE', #62, #161, #193, .T. ) ;
#118 = PERSON_AND_ORGANIZATION ( #149, #230 ) ;
#119 = DATE_AND_TIME ( #92, #224 ) ;
#120 = CARTESIAN_POINT ( 'NONE',  ( -25.46224358315578200, -38.55570589337290200, 2.543779164080722600 ) ) ;
#121 = DIRECTION ( 'NONE',  ( -5.827942386483759700E-018, -2.717192996813919900E-034, -1.000000000000000000 ) ) ;
#122 = CARTESIAN_POINT ( 'NONE',  ( -38.39097565994831700, -12.89422948297278100, 1.255346329886816200 ) ) ;
#123 = CARTESIAN_POINT ( 'NONE',  ( -9.284904830319256500E-015, -1.776356839400250100E-015, 8.900000000000000400 ) ) ;
#124 = DATE_AND_TIME ( #214, #140 ) ;
#125 = APPROVAL_ROLE ( '' ) ;
#126 = DIRECTION ( 'NONE',  ( 5.827942386483759700E-018, 2.717192996813919900E-034, 1.000000000000000000 ) ) ;
#127 = COORDINATED_UNIVERSAL_TIME_OFFSET ( 2, 0, .AHEAD. ) ;
#128 = DATE_TIME_ROLE ( 'creation_date' ) ;
#129 = ADVANCED_FACE ( 'NONE', ( #57 ), #228, .T. ) ;
#130 = SHAPE_DEFINITION_REPRESENTATION ( #191, #101 ) ;
#131 = EDGE_LOOP ( 'NONE', ( #14, #176, #178, #115, #10 ) ) ;
#132 = FACE_OUTER_BOUND ( 'NONE', #221, .T. ) ;
#133 = PERSON_AND_ORGANIZATION ( #149, #230 ) ;
#134 = UNCERTAINTY_MEASURE_WITH_UNIT (LENGTH_MEASURE( 1.000000000000000100E-005 ), #226, 'distance_accuracy_value', 'NONE');
#135 = AXIS2_PLACEMENT_3D ( 'NONE', #150, #152, #166 ) ;
#136 = CC_DESIGN_APPROVAL ( #164, ( #16 ) ) ;
#137 = CARTESIAN_POINT ( 'NONE',  ( 38.13913293265446900, -38.55570589337291000, 3.798930320528512500 ) ) ;
#138 = CARTESIAN_POINT ( 'NONE',  ( -38.10000000000000900, 2.889547465351166000E-015, 1.870318885260410500 ) ) ;
#139 = CC_DESIGN_PERSON_AND_ORGANIZATION_ASSIGNMENT ( #220, #204, ( #213 ) ) ;
#140 = LOCAL_TIME ( 9, 6, 51.00000000000000000, #9 ) ;
#141 = CARTESIAN_POINT ( 'NONE',  ( 12.82299281622839400, 12.89422948297282200, -0.6405824113790550300 ) ) ;
#142 =( GEOMETRIC_REPRESENTATION_CONTEXT ( 3 ) GLOBAL_UNCERTAINTY_ASSIGNED_CONTEXT ( ( #134 ) ) GLOBAL_UNIT_ASSIGNED_CONTEXT ( ( #226, #75, #3 ) ) REPRESENTATION_CONTEXT ( 'NONE', 'WORKASPACE' ) );
#143 = CARTESIAN_POINT ( 'NONE',  ( -9.325873406851310200E-015, -1.776356839400250100E-015, 1.870318885260410000 ) ) ;
#144 = CC_DESIGN_SECURITY_CLASSIFICATION ( #16, ( #213 ) ) ;
#145 = MANIFOLD_SOLID_BREP ( 'Imported1', #79 ) ;
#146 = CARTESIAN_POINT ( 'NONE',  ( -2.250383544260303300E-013, -38.10000000000012900, 1.870318885260406500 ) ) ;
#147 = DIRECTION ( 'NONE',  ( 5.827942386483759700E-018, 2.717192996813919900E-034, 1.000000000000000000 ) ) ;
#148 = EDGE_LOOP ( 'NONE', ( #189, #8, #114 ) ) ;
#149 = PERSON ( 'UNSPECIFIED', 'UNSPECIFIED', 'UNSPECIFIED', ('UNSPECIFIED'), ('UNSPECIFIED'), ('UNSPECIFIED') ) ;
#150 = CARTESIAN_POINT ( 'NONE',  ( 0.0000000000000000000, 77.92799999999999700, 8.900000000000000400 ) ) ;
#151 = DIRECTION ( 'NONE',  ( 1.000000000000000000, 0.0000000000000000000, -5.691349986800548400E-018 ) ) ;
#152 = DIRECTION ( 'NONE',  ( 0.0000000000000000000, 0.0000000000000000000, 1.000000000000000000 ) ) ;
#153 = CIRCLE ( 'NONE', #60, 38.10000000000000100 ) ;
#154 = LOCAL_TIME ( 9, 6, 51.00000000000000000, #184 ) ;
#155 = PERSON_AND_ORGANIZATION ( #149, #230 ) ;
#156 = CC_DESIGN_PERSON_AND_ORGANIZATION_ASSIGNMENT ( #118, #91, ( #213 ) ) ;
#157 = ORIENTED_EDGE ( 'NONE', *, *, #11, .F. ) ;
#158 = AXIS2_PLACEMENT_3D ( 'NONE', #123, #199, #219 ) ;
#159 = VERTEX_POINT ( 'NONE', #146 ) ;
#160 = CARTESIAN_POINT ( 'NONE',  ( 38.39097565994798300, -12.89422948297280400, 1.255346329886858300 ) ) ;
#161 = VERTEX_POINT ( 'NONE', #94 ) ;
#162 = CARTESIAN_POINT ( 'NONE',  ( 25.46224358315537700, 38.55570589337293100, 2.543779164080816700 ) ) ;
#163 = PRODUCT_RELATED_PRODUCT_CATEGORY ( 'detail', '', ( #167 ) ) ;
#164 = APPROVAL ( #206, 'UNSPECIFIED' ) ;
#165 = COORDINATED_UNIVERSAL_TIME_OFFSET ( 2, 0, .AHEAD. ) ;
#166 = DIRECTION ( 'NONE',  ( 1.000000000000000000, 0.0000000000000000000, -0.0000000000000000000 ) ) ;
#167 = PRODUCT ( '110-0730E BK7 pl-cx 76.2 F750', '110-0730E BK7 pl-cx 76.2 F750', '', ( #22 ) ) ;
#168 = DIRECTION ( 'NONE',  ( -5.827942386483759700E-018, -2.717192996813919900E-034, -1.000000000000000000 ) ) ;
#169 = APPROVAL_STATUS ( 'not_yet_approved' ) ;
#170 = VECTOR ( 'NONE', #126, 1000.000000000000000 ) ;
#171 = APPROVAL_STATUS ( 'not_yet_approved' ) ;
#172 = CIRCLE ( 'NONE', #88, 389.0000000000000000 ) ;
#173 = APPROVAL_DATE_TIME ( #27, #99 ) ;
#174 = APPROVAL_PERSON_ORGANIZATION ( #133, #104, #207 ) ;
#175 = EDGE_CURVE ( 'NONE', #159, #62, #172, .T. ) ;
#176 = ORIENTED_EDGE ( 'NONE', *, *, #112, .F. ) ;
#177 = CARTESIAN_POINT ( 'NONE',  ( -12.73887467577031700, -38.55570589337289500, 1.915438769428875500 ) ) ;
#178 = ORIENTED_EDGE ( 'NONE', *, *, #190, .F. ) ;
#179 = AXIS2_PLACEMENT_3D ( 'NONE', #181, #218, #33 ) ;
#180 = CARTESIAN_POINT ( 'NONE',  ( -3.191891195797325100E-013, -38.55570589337290200, 1.915438769428869000 ) ) ;
#181 = CARTESIAN_POINT ( 'NONE',  ( -9.284904830319256500E-015, -1.776356839400250100E-015, 8.900000000000000400 ) ) ;
#182 = DIRECTION ( 'NONE',  ( 0.0000000000000000000, 0.0000000000000000000, 1.000000000000000000 ) ) ;
#183 = DIRECTION ( 'NONE',  ( -2.988028379211528500E-016, -1.000000000000000000, 5.708087530206460600E-016 ) ) ;
#184 = COORDINATED_UNIVERSAL_TIME_OFFSET ( 2, 0, .AHEAD. ) ;
#185 = SECURITY_CLASSIFICATION_LEVEL ( 'unclassified' ) ;
#186 = ADVANCED_FACE ( 'NONE', ( #82 ), #36, .T. ) ;
#187 = CARTESIAN_POINT ( 'NONE',  ( 38.09999999999999400, -1.776356839400250100E-015, 1.870318885260409800 ) ) ;
#188 = CYLINDRICAL_SURFACE ( 'NONE', #209, 38.10000000000000100 ) ;
#189 = ORIENTED_EDGE ( 'NONE', *, *, #190, .T. ) ;
#190 = EDGE_CURVE ( 'NONE', #161, #159, #229, .T. ) ;
#191 = PRODUCT_DEFINITION_SHAPE ( 'NONE', 'NONE',  #80 ) ;
#192 = EDGE_CURVE ( 'NONE', #100, #108, #65, .T. ) ;
#193 = CIRCLE ( 'NONE', #32, 38.10000000000000100 ) ;
#194 = EDGE_CURVE ( 'NONE', #161, #98, #23, .T. ) ;
#195 = DIRECTION ( 'NONE',  ( 1.000000000000000000, 0.0000000000000000000, -5.691349986800548400E-018 ) ) ;
#196 = APPROVAL_DATE_TIME ( #124, #104 ) ;
#197 = ORIENTED_EDGE ( 'NONE', *, *, #81, .T. ) ;
#198 = CARTESIAN_POINT ( 'NONE',  ( 25.63037747540500900, 12.89422948297281800, -0.008092919815700511100 ) ) ;
#199 = DIRECTION ( 'NONE',  ( -5.827942386483759700E-018, -2.717192996813919900E-034, -1.000000000000000000 ) ) ;
#200 = CARTESIAN_POINT ( 'NONE',  ( -2.181551798262920600E-013, -12.89422948297279300, -0.6405824113791051000 ) ) ;
#201 = CC_DESIGN_DATE_AND_TIME_ASSIGNMENT ( #232, #128, ( #80 ) ) ;
#202 = DIRECTION ( 'NONE',  ( -5.827942386483759700E-018, -2.717192996813919900E-034, -1.000000000000000000 ) ) ;
#203 = EDGE_LOOP ( 'NONE', ( #157, #211 ) ) ;
#204 = PERSON_AND_ORGANIZATION_ROLE ( 'creator' ) ;
#205 = CARTESIAN_POINT ( 'NONE',  ( -9.325873406851310200E-015, -1.776356839400250100E-015, 1.870318885260410200 ) ) ;
#206 = APPROVAL_STATUS ( 'not_yet_approved' ) ;
#207 = APPROVAL_ROLE ( '' ) ;
#208 = ORIENTED_EDGE ( 'NONE', *, *, #175, .F. ) ;
#209 = AXIS2_PLACEMENT_3D ( 'NONE', #103, #74, #52 ) ;
#210 = EDGE_CURVE ( 'NONE', #100, #62, #153, .T. ) ;
#211 = ORIENTED_EDGE ( 'NONE', *, *, #81, .F. ) ;
#212 =( BOUNDED_SURFACE ( )  B_SPLINE_SURFACE ( 3, 3, ( 
 ( #30, #120, #177, #180 ),
 ( #122, #18, #85, #69 ),
 ( #217, #222, #51, #72 ),
 ( #31, #35, #48, #90 ) ),
 .UNSPECIFIED., .F., .F., .F. ) 
 B_SPLINE_SURFACE_WITH_KNOTS ( ( 4, 4 ),
 ( 4, 4 ),
 ( 0.0000000000000000000, 1.000000000000000000 ),
 ( 0.0000000000000000000, 1.000000000000000000 ),
 .UNSPECIFIED. ) 
 GEOMETRIC_REPRESENTATION_ITEM ( )  RATIONAL_B_SPLINE_SURFACE ( (
 ( 1.000000000000000000, 0.9991885328032396000, 0.9991885328032396000, 1.000000000000000000),
 ( 0.9967173285870969400, 0.9959085251705058800, 0.9959085251705058800, 0.9967173285870969400),
 ( 0.9967173285870969400, 0.9959085251705058800, 0.9959085251705058800, 0.9967173285870969400),
 ( 1.000000000000000000, 0.9991885328032396000, 0.9991885328032396000, 1.000000000000000000) ) ) 
 REPRESENTATION_ITEM ( '' )  SURFACE ( )  );
#213 = PRODUCT_DEFINITION_FORMATION_WITH_SPECIFIED_SOURCE ( 'ANY', '', #167, .NOT_KNOWN. ) ;
#214 = CALENDAR_DATE ( 2018, 21, 12 ) ;
#215 = FACE_OUTER_BOUND ( 'NONE', #63, .T. ) ;
#216 = CARTESIAN_POINT ( 'NONE',  ( 12.73887467576986100, 38.55570589337293100, 1.915438769428953400 ) ) ;
#217 = CARTESIAN_POINT ( 'NONE',  ( -38.39097565994831000, 12.89422948297284000, 1.255346329886870300 ) ) ;
#218 = DIRECTION ( 'NONE',  ( -5.827942386483759700E-018, -2.717192996813919900E-034, -1.000000000000000000 ) ) ;
#219 = DIRECTION ( 'NONE',  ( 1.000000000000000000, 0.0000000000000000000, 0.0000000000000000000 ) ) ;
#220 = PERSON_AND_ORGANIZATION ( #149, #230 ) ;
#221 = EDGE_LOOP ( 'NONE', ( #83, #47, #197, #25, #68 ) ) ;
#222 = CARTESIAN_POINT ( 'NONE',  ( -25.63037747540540300, 12.89422948297283400, -0.008092919815738891900 ) ) ;
#223 = CARTESIAN_POINT ( 'NONE',  ( -38.10000000000000900, 2.889547465351166000E-015, 1.870318885260410200 ) ) ;
#224 = LOCAL_TIME ( 9, 6, 51.00000000000000000, #165 ) ;
#225 = APPROVAL_ROLE ( '' ) ;
#226 =( LENGTH_UNIT ( ) NAMED_UNIT ( * ) SI_UNIT ( .MILLI., .METRE. ) );
#227 = APPLICATION_CONTEXT ( 'configuration controlled 3d designs of mechanical parts and assemblies' ) ;
#228 =( BOUNDED_SURFACE ( )  B_SPLINE_SURFACE ( 3, 3, ( 
 ( #235, #12, #66, #137 ),
 ( #200, #13, #15, #160 ),
 ( #89, #141, #198, #87 ),
 ( #233, #216, #162, #17 ) ),
 .UNSPECIFIED., .F., .F., .T. ) 
 B_SPLINE_SURFACE_WITH_KNOTS ( ( 4, 4 ),
 ( 4, 4 ),
 ( 0.0000000000000000000, 1.000000000000000000 ),
 ( 0.0000000000000000000, 1.000000000000000000 ),
 .UNSPECIFIED. ) 
 GEOMETRIC_REPRESENTATION_ITEM ( )  RATIONAL_B_SPLINE_SURFACE ( (
 ( 1.000000000000000000, 0.9991885328032396000, 0.9991885328032396000, 1.000000000000000000),
 ( 0.9967173285870969400, 0.9959085251705058800, 0.9959085251705058800, 0.9967173285870969400),
 ( 0.9967173285870969400, 0.9959085251705058800, 0.9959085251705058800, 0.9967173285870969400),
 ( 1.000000000000000000, 0.9991885328032396000, 0.9991885328032396000, 1.000000000000000000) ) ) 
 REPRESENTATION_ITEM ( '' )  SURFACE ( )  );
#229 = CIRCLE ( 'NONE', #46, 38.10000000000000100 ) ;
#230 = ORGANIZATION ( 'UNSPECIFIED', 'UNSPECIFIED', '' ) ;
#231 = CARTESIAN_POINT ( 'NONE',  ( -2.022695781764383600E-013, 38.10000000000013600, 1.870318885260406500 ) ) ;
#232 = DATE_AND_TIME ( #5, #24 ) ;
#233 = CARTESIAN_POINT ( 'NONE',  ( -2.021217608141060300E-013, 38.55570589337293100, 1.915438769428956500 ) ) ;
#234 = AXIS2_PLACEMENT_3D ( 'NONE', #56, #182, #54 ) ;
#235 = CARTESIAN_POINT ( 'NONE',  ( -2.251628694920923700E-013, -38.55570589337291000, 1.915438769428901000 ) ) ;
ENDSEC;
END-ISO-10303-21;
