ISO-10303-21;
HEADER;
FILE_DESCRIPTION (( 'STEP AP203' ),
    '1' );
FILE_NAME ('110-0725E BK7 pl-cx 76.2 F500.STEP',
    '2018-12-21T07:07:01',
    ( '' ),
    ( '' ),
    'SwSTEP 2.0',
    'SolidWorks 2017',
    '' );
FILE_SCHEMA (( 'CONFIG_CONTROL_DESIGN' ));
ENDSEC;

DATA;
#1 = FACE_OUTER_BOUND ( 'NONE', #115, .T. ) ;
#2 = SECURITY_CLASSIFICATION_LEVEL ( 'unclassified' ) ;
#3 = ORIENTED_EDGE ( 'NONE', *, *, #132, .T. ) ;
#4 = DATE_TIME_ROLE ( 'classification_date' ) ;
#5 = AXIS2_PLACEMENT_3D ( 'NONE', #221, #18, #168 ) ;
#6 = APPROVAL_PERSON_ORGANIZATION ( #112, #79, #148 ) ;
#7 = VECTOR ( 'NONE', #174, 1000.000000000000000 ) ;
#8 = CARTESIAN_POINT ( 'NONE',  ( -8.652190118748585600E-014, -38.10000000000005100, 2.813270023564951500 ) ) ;
#9 = DATE_AND_TIME ( #31, #65 ) ;
#10 = ORIENTED_EDGE ( 'NONE', *, *, #218, .F. ) ;
#11 = CARTESIAN_POINT ( 'NONE',  ( 12.88222206250512900, 12.94714089709687800, -0.9675198104169201500 ) ) ;
#12 = CALENDAR_DATE ( 2018, 21, 12 ) ;
#13 = DIRECTION ( 'NONE',  ( 1.000000000000000000, 0.0000000000000000000, -1.138269997360109700E-017 ) ) ;
#14 = CARTESIAN_POINT ( 'NONE',  ( -2.842170943040400100E-014, -2.842170943040400100E-014, 259.3999999999999800 ) ) ;
#15 = CARTESIAN_POINT ( 'NONE',  ( -38.10000000000000900, 2.889547465351166000E-015, 2.813270023564940800 ) ) ;
#16 = DATE_AND_TIME ( #102, #208 ) ;
#17 =( GEOMETRIC_REPRESENTATION_CONTEXT ( 3 ) GLOBAL_UNCERTAINTY_ASSIGNED_CONTEXT ( ( #95 ) ) GLOBAL_UNIT_ASSIGNED_CONTEXT ( ( #225, #63, #226 ) ) REPRESENTATION_CONTEXT ( 'NONE', 'WORKASPACE' ) );
#18 = DIRECTION ( 'NONE',  ( -1.165588477296749900E-017, -5.434385993627839900E-034, -1.000000000000000000 ) ) ;
#19 = DATE_AND_TIME ( #194, #119 ) ;
#20 = CC_DESIGN_SECURITY_CLASSIFICATION ( #25, ( #108 ) ) ;
#21 = APPROVAL_STATUS ( 'not_yet_approved' ) ;
#22 = APPLICATION_CONTEXT ( 'configuration controlled 3d designs of mechanical parts and assemblies' ) ;
#23 = AXIS2_PLACEMENT_3D ( 'NONE', #14, #215, #141 ) ;
#24 = SHAPE_DEFINITION_REPRESENTATION ( #188, #27 ) ;
#25 = SECURITY_CLASSIFICATION ( '', '', #2 ) ;
#26 = CARTESIAN_POINT ( 'NONE',  ( 37.90124269953386700, -38.55382370744892700, 5.696514648761757700 ) ) ;
#27 = ADVANCED_BREP_SHAPE_REPRESENTATION ( '110-0725E BK7 pl-cx 76.2 F500', ( #113, #33 ), #17 ) ;
#28 = CARTESIAN_POINT ( 'NONE',  ( 12.69180523272235000, -38.55382370744892700, 2.881067604094896600 ) ) ;
#29 = COORDINATED_UNIVERSAL_TIME_OFFSET ( 2, 0, .AHEAD. ) ;
#30 = DIRECTION ( 'NONE',  ( 1.000000000000000000, 0.0000000000000000000, -0.0000000000000000000 ) ) ;
#31 = CALENDAR_DATE ( 2018, 21, 12 ) ;
#32 = CARTESIAN_POINT ( 'NONE',  ( -1.457167719820518000E-013, -38.55382370744892700, 2.881067604094919200 ) ) ;
#33 = AXIS2_PLACEMENT_3D ( 'NONE', #207, #78, #92 ) ;
#34 = CARTESIAN_POINT ( 'NONE',  ( -9.325873406851310200E-015, -1.776356839400250100E-015, 2.813270023564940400 ) ) ;
#35 = PERSON_AND_ORGANIZATION_ROLE ( 'design_owner' ) ;
#36 = CIRCLE ( 'NONE', #5, 38.10000000000000100 ) ;
#37 = PERSON_AND_ORGANIZATION_ROLE ( 'creator' ) ;
#38 = LINE ( 'NONE', #49, #7 ) ;
#39 = AXIS2_PLACEMENT_3D ( 'NONE', #176, #85, #175 ) ;
#40 = AXIS2_PLACEMENT_3D ( 'NONE', #166, #73, #217 ) ;
#41 = ORIENTED_EDGE ( 'NONE', *, *, #83, .F. ) ;
#42 = CARTESIAN_POINT ( 'NONE',  ( -8.737800397334600100E-014, -12.94714089709691900, -0.9675198104168601900 ) ) ;
#43 = CIRCLE ( 'NONE', #144, 38.10000000000000100 ) ;
#44 = CARTESIAN_POINT ( 'NONE',  ( 25.72904799439074400, 12.94714089709687600, -0.01320919875663954300 ) ) ;
#45 = CC_DESIGN_DATE_AND_TIME_ASSIGNMENT ( #52, #4, ( #25 ) ) ;
#46 = CARTESIAN_POINT ( 'NONE',  ( -25.34873753796106000, 38.55382370744889200, 3.821272202024059700 ) ) ;
#47 = CARTESIAN_POINT ( 'NONE',  ( -38.10000000000000900, 2.889547465351166000E-015, 2.813270023564940400 ) ) ;
#48 = AXIS2_PLACEMENT_3D ( 'NONE', #181, #56, #59 ) ;
#49 = CARTESIAN_POINT ( 'NONE',  ( 38.09999999999999400, -1.776356839400250100E-015, 2.813270023564939500 ) ) ;
#50 = CIRCLE ( 'NONE', #23, 259.3999999999999800 ) ;
#51 = DESIGN_CONTEXT ( 'detailed design', #22, 'design' ) ;
#52 = DATE_AND_TIME ( #57, #98 ) ;
#53 = CLOSED_SHELL ( 'NONE', ( #66, #231, #163, #133, #156 ) ) ;
#54 = CC_DESIGN_PERSON_AND_ORGANIZATION_ASSIGNMENT ( #159, #35, ( #201 ) ) ;
#55 = EDGE_CURVE ( 'NONE', #103, #224, #43, .T. ) ;
#56 = DIRECTION ( 'NONE',  ( -1.165588477296749900E-017, -5.434385993627839900E-034, -1.000000000000000000 ) ) ;
#57 = CALENDAR_DATE ( 2018, 21, 12 ) ;
#58 = FACE_OUTER_BOUND ( 'NONE', #189, .T. ) ;
#59 = DIRECTION ( 'NONE',  ( 1.000000000000000000, 8.881784197001252300E-016, -1.138269997360109700E-017 ) ) ;
#60 = APPROVAL_ROLE ( '' ) ;
#61 = APPROVAL_DATE_TIME ( #149, #96 ) ;
#62 = ORIENTED_EDGE ( 'NONE', *, *, #116, .F. ) ;
#63 =( NAMED_UNIT ( * ) PLANE_ANGLE_UNIT ( ) SI_UNIT ( $, .RADIAN. ) );
#64 = CC_DESIGN_APPROVAL ( #79, ( #68 ) ) ;
#65 = LOCAL_TIME ( 9, 7, 1.000000000000000000, #107 ) ;
#66 = ADVANCED_FACE ( 'NONE', ( #58 ), #154, .T. ) ;
#67 = ORIENTED_EDGE ( 'NONE', *, *, #55, .F. ) ;
#68 = PRODUCT_DEFINITION ( 'UNKNOWN', '', #108, #51 ) ;
#69 = PERSON_AND_ORGANIZATION ( #106, #152 ) ;
#70 = CARTESIAN_POINT ( 'NONE',  ( -25.72904799439081500, 12.94714089709687800, -0.01320919875663043400 ) ) ;
#71 = CARTESIAN_POINT ( 'NONE',  ( -38.46988004838520000, 12.94714089709687400, 1.890167758023852500 ) ) ;
#72 = FACE_OUTER_BOUND ( 'NONE', #191, .T. ) ;
#73 = DIRECTION ( 'NONE',  ( 1.165588477296749900E-017, 5.434385993627839900E-034, 1.000000000000000000 ) ) ;
#74 = EDGE_CURVE ( 'NONE', #224, #103, #187, .T. ) ;
#75 = DIRECTION ( 'NONE',  ( -1.165588477296749900E-017, -5.434385993627839900E-034, -1.000000000000000000 ) ) ;
#76 = PERSON_AND_ORGANIZATION_ROLE ( 'classification_officer' ) ;
#77 = VERTEX_POINT ( 'NONE', #8 ) ;
#78 = DIRECTION ( 'NONE',  ( 0.0000000000000000000, 0.0000000000000000000, 1.000000000000000000 ) ) ;
#79 = APPROVAL ( #21, 'UNSPECIFIED' ) ;
#80 = ORIENTED_EDGE ( 'NONE', *, *, #111, .F. ) ;
#81 = CARTESIAN_POINT ( 'NONE',  ( 38.46988004838521400, 12.94714089709687200, 1.890167758023858900 ) ) ;
#82 = VERTEX_POINT ( 'NONE', #212 ) ;
#83 = EDGE_CURVE ( 'NONE', #206, #224, #38, .T. ) ;
#84 = CARTESIAN_POINT ( 'NONE',  ( -1.457167719820518000E-013, 38.55382370744888500, 2.881067604094862000 ) ) ;
#85 = DIRECTION ( 'NONE',  ( 1.165588477296749900E-017, 5.434385993627839900E-034, 1.000000000000000000 ) ) ;
#86 = CARTESIAN_POINT ( 'NONE',  ( -9.245602475783442000E-015, -1.776356839400250100E-015, 9.700000000000004600 ) ) ;
#87 = CARTESIAN_POINT ( 'NONE',  ( -1.457167719820518000E-013, 12.94714089709687400, -0.9675198104168990500 ) ) ;
#88 = CC_DESIGN_APPROVAL ( #96, ( #108 ) ) ;
#89 = ORIENTED_EDGE ( 'NONE', *, *, #203, .T. ) ;
#90 = DATE_TIME_ROLE ( 'creation_date' ) ;
#91 = ORIENTED_EDGE ( 'NONE', *, *, #74, .T. ) ;
#92 = DIRECTION ( 'NONE',  ( 1.000000000000000000, 0.0000000000000000000, 0.0000000000000000000 ) ) ;
#93 = EDGE_LOOP ( 'NONE', ( #62, #3, #89 ) ) ;
#94 = AXIS2_PLACEMENT_3D ( 'NONE', #86, #121, #193 ) ;
#95 = UNCERTAINTY_MEASURE_WITH_UNIT (LENGTH_MEASURE( 1.000000000000000100E-005 ), #225, 'distance_accuracy_value', 'NONE');
#96 = APPROVAL ( #186, 'UNSPECIFIED' ) ;
#97 = ORIENTED_EDGE ( 'NONE', *, *, #211, .T. ) ;
#98 = LOCAL_TIME ( 9, 7, 1.000000000000000000, #29 ) ;
#99 = ORIENTED_EDGE ( 'NONE', *, *, #116, .T. ) ;
#100 = CARTESIAN_POINT ( 'NONE',  ( 0.0000000000000000000, 77.92799999999999700, 9.700000000000001100 ) ) ;
#101 = CARTESIAN_POINT ( 'NONE',  ( -9.325873406851310200E-015, -1.776356839400250100E-015, 2.813270023564940400 ) ) ;
#102 = CALENDAR_DATE ( 2018, 21, 12 ) ;
#103 = VERTEX_POINT ( 'NONE', #120 ) ;
#104 = PERSON_AND_ORGANIZATION ( #106, #152 ) ;
#105 = APPROVAL_ROLE ( '' ) ;
#106 = PERSON ( 'UNSPECIFIED', 'UNSPECIFIED', 'UNSPECIFIED', ('UNSPECIFIED'), ('UNSPECIFIED'), ('UNSPECIFIED') ) ;
#107 = COORDINATED_UNIVERSAL_TIME_OFFSET ( 2, 0, .AHEAD. ) ;
#108 = PRODUCT_DEFINITION_FORMATION_WITH_SPECIFIED_SOURCE ( 'ANY', '', #201, .NOT_KNOWN. ) ;
#109 = APPLICATION_PROTOCOL_DEFINITION ( 'international standard', 'config_control_design', 1994, #22 ) ;
#110 =( BOUNDED_SURFACE ( )  B_SPLINE_SURFACE ( 3, 3, ( 
 ( #235, #213, #162, #32 ),
 ( #179, #142, #177, #197 ),
 ( #71, #70, #198, #87 ),
 ( #125, #46, #192, #84 ) ),
 .UNSPECIFIED., .F., .F., .F. ) 
 B_SPLINE_SURFACE_WITH_KNOTS ( ( 4, 4 ),
 ( 4, 4 ),
 ( 0.0000000000000000000, 1.000000000000000000 ),
 ( 0.0000000000000000000, 1.000000000000000000 ),
 .UNSPECIFIED. ) 
 GEOMETRIC_REPRESENTATION_ITEM ( )  RATIONAL_B_SPLINE_SURFACE ( (
 ( 1.000000000000000000, 0.9981682181615431100, 0.9981682181615431100, 1.000000000000000000),
 ( 0.9925955599997561300, 0.9907773414800156200, 0.9907773414800156200, 0.9925955599997561300),
 ( 0.9925955599997561300, 0.9907773414800156200, 0.9907773414800156200, 0.9925955599997561300),
 ( 1.000000000000000000, 0.9981682181615431100, 0.9981682181615431100, 1.000000000000000000) ) ) 
 REPRESENTATION_ITEM ( '' )  SURFACE ( )  );
#111 = EDGE_CURVE ( 'NONE', #173, #103, #180, .T. ) ;
#112 = PERSON_AND_ORGANIZATION ( #106, #152 ) ;
#113 = MANIFOLD_SOLID_BREP ( 'Imported1', #53 ) ;
#114 = DIRECTION ( 'NONE',  ( -1.165588477296749900E-017, -5.434385993627839900E-034, -1.000000000000000000 ) ) ;
#115 = EDGE_LOOP ( 'NONE', ( #80, #216, #140, #143, #91 ) ) ;
#116 = EDGE_CURVE ( 'NONE', #77, #82, #50, .T. ) ;
#117 = CARTESIAN_POINT ( 'NONE',  ( 38.46988004838520700, -12.94714089709692000, 1.890167758023914900 ) ) ;
#118 = CC_DESIGN_PERSON_AND_ORGANIZATION_ASSIGNMENT ( #104, #76, ( #25 ) ) ;
#119 = LOCAL_TIME ( 9, 7, 1.000000000000000000, #138 ) ;
#120 = CARTESIAN_POINT ( 'NONE',  ( -38.10000000000000900, 2.889547465351166000E-015, 9.700000000000004600 ) ) ;
#121 = DIRECTION ( 'NONE',  ( -1.165588477296749900E-017, -5.434385993627839900E-034, -1.000000000000000000 ) ) ;
#122 = DIRECTION ( 'NONE',  ( -1.165588477296749900E-017, -5.434385993627839900E-034, -1.000000000000000000 ) ) ;
#123 = APPROVAL_PERSON_ORGANIZATION ( #223, #96, #60 ) ;
#124 = EDGE_LOOP ( 'NONE', ( #234, #67 ) ) ;
#125 = CARTESIAN_POINT ( 'NONE',  ( -37.90124269953386700, 38.55382370744888500, 5.696514648761697300 ) ) ;
#126 = PRODUCT_RELATED_PRODUCT_CATEGORY ( 'detail', '', ( #201 ) ) ;
#127 = CIRCLE ( 'NONE', #48, 38.10000000000000100 ) ;
#128 = MECHANICAL_CONTEXT ( 'NONE', #169, 'mechanical' ) ;
#129 = APPLICATION_PROTOCOL_DEFINITION ( 'international standard', 'config_control_design', 1994, #169 ) ;
#130 = APPROVAL_STATUS ( 'not_yet_approved' ) ;
#131 = VECTOR ( 'NONE', #230, 1000.000000000000000 ) ;
#132 = EDGE_CURVE ( 'NONE', #77, #173, #229, .T. ) ;
#133 = ADVANCED_FACE ( 'NONE', ( #1 ), #147, .T. ) ;
#134 = FACE_OUTER_BOUND ( 'NONE', #124, .T. ) ;
#135 = CARTESIAN_POINT ( 'NONE',  ( 25.34873753796098200, -38.55382370744892700, 3.821272202024105900 ) ) ;
#136 = CARTESIAN_POINT ( 'NONE',  ( -8.650654944879767200E-014, -38.55382370744892700, 2.881067604094900100 ) ) ;
#137 = CARTESIAN_POINT ( 'NONE',  ( -8.650654944879767200E-014, 38.55382370744888500, 2.881067604094844600 ) ) ;
#138 = COORDINATED_UNIVERSAL_TIME_OFFSET ( 2, 0, .AHEAD. ) ;
#139 = DIRECTION ( 'NONE',  ( 0.0000000000000000000, 0.0000000000000000000, 1.000000000000000000 ) ) ;
#140 = ORIENTED_EDGE ( 'NONE', *, *, #211, .F. ) ;
#141 = DIRECTION ( 'NONE',  ( 0.0000000000000000000, -1.000000000000000000, -4.279965399480172100E-016 ) ) ;
#142 = CARTESIAN_POINT ( 'NONE',  ( -25.72904799439081500, -12.94714089709692000, -0.01320919875657297100 ) ) ;
#143 = ORIENTED_EDGE ( 'NONE', *, *, #83, .T. ) ;
#144 = AXIS2_PLACEMENT_3D ( 'NONE', #155, #114, #209 ) ;
#145 = CARTESIAN_POINT ( 'NONE',  ( 38.09999999999999400, -1.776356839400250100E-015, 2.813270023564939900 ) ) ;
#146 = APPROVAL_DATE_TIME ( #19, #182 ) ;
#147 = CYLINDRICAL_SURFACE ( 'NONE', #39, 38.10000000000000100 ) ;
#148 = APPROVAL_ROLE ( '' ) ;
#149 = DATE_AND_TIME ( #12, #210 ) ;
#150 = ORIENTED_EDGE ( 'NONE', *, *, #55, .T. ) ;
#151 = CC_DESIGN_PERSON_AND_ORGANIZATION_ASSIGNMENT ( #69, #37, ( #68 ) ) ;
#152 = ORGANIZATION ( 'UNSPECIFIED', 'UNSPECIFIED', '' ) ;
#153 = ORIENTED_EDGE ( 'NONE', *, *, #111, .T. ) ;
#154 =( BOUNDED_SURFACE ( )  B_SPLINE_SURFACE ( 3, 3, ( 
 ( #136, #28, #135, #26 ),
 ( #42, #172, #190, #117 ),
 ( #157, #11, #44, #81 ),
 ( #137, #232, #160, #195 ) ),
 .UNSPECIFIED., .F., .F., .F. ) 
 B_SPLINE_SURFACE_WITH_KNOTS ( ( 4, 4 ),
 ( 4, 4 ),
 ( 0.0000000000000000000, 1.000000000000000000 ),
 ( 0.0000000000000000000, 1.000000000000000000 ),
 .UNSPECIFIED. ) 
 GEOMETRIC_REPRESENTATION_ITEM ( )  RATIONAL_B_SPLINE_SURFACE ( (
 ( 1.000000000000000000, 0.9981682181615431100, 0.9981682181615431100, 1.000000000000000000),
 ( 0.9925955599997561300, 0.9907773414800156200, 0.9907773414800156200, 0.9925955599997561300),
 ( 0.9925955599997561300, 0.9907773414800156200, 0.9907773414800156200, 0.9925955599997561300),
 ( 1.000000000000000000, 0.9981682181615431100, 0.9981682181615431100, 1.000000000000000000) ) ) 
 REPRESENTATION_ITEM ( '' )  SURFACE ( )  );
#155 = CARTESIAN_POINT ( 'NONE',  ( -9.245602475783442000E-015, -1.776356839400250100E-015, 9.700000000000004600 ) ) ;
#156 = ADVANCED_FACE ( 'NONE', ( #134 ), #164, .T. ) ;
#157 = CARTESIAN_POINT ( 'NONE',  ( -8.737800397334600100E-014, 12.94714089709687400, -0.9675198104169170400 ) ) ;
#158 = AXIS2_PLACEMENT_3D ( 'NONE', #100, #139, #30 ) ;
#159 = PERSON_AND_ORGANIZATION ( #106, #152 ) ;
#160 = CARTESIAN_POINT ( 'NONE',  ( 25.34873753796098900, 38.55382370744889200, 3.821272202024050800 ) ) ;
#161 = CC_DESIGN_PERSON_AND_ORGANIZATION_ASSIGNMENT ( #199, #184, ( #108 ) ) ;
#162 = CARTESIAN_POINT ( 'NONE',  ( -12.69180523272249600, -38.55382370744892700, 2.881067604094925000 ) ) ;
#163 = ADVANCED_FACE ( 'NONE', ( #178 ), #110, .T. ) ;
#164 = PLANE ( 'NONE',  #158 ) ;
#165 = CIRCLE ( 'NONE', #220, 38.10000000000000100 ) ;
#166 = CARTESIAN_POINT ( 'NONE',  ( -9.325873406851310200E-015, -1.776356839400250100E-015, 2.813270023564939900 ) ) ;
#167 = CC_DESIGN_DATE_AND_TIME_ASSIGNMENT ( #9, #90, ( #68 ) ) ;
#168 = DIRECTION ( 'NONE',  ( 1.000000000000000000, 0.0000000000000000000, -1.138269997360109700E-017 ) ) ;
#169 = APPLICATION_CONTEXT ( 'configuration controlled 3d designs of mechanical parts and assemblies' ) ;
#170 = COORDINATED_UNIVERSAL_TIME_OFFSET ( 2, 0, .AHEAD. ) ;
#171 = CC_DESIGN_PERSON_AND_ORGANIZATION_ASSIGNMENT ( #204, #185, ( #108 ) ) ;
#172 = CARTESIAN_POINT ( 'NONE',  ( 12.88222206250512700, -12.94714089709692000, -0.9675198104168634100 ) ) ;
#173 = VERTEX_POINT ( 'NONE', #15 ) ;
#174 = DIRECTION ( 'NONE',  ( 1.165588477296749900E-017, 5.434385993627839900E-034, 1.000000000000000000 ) ) ;
#175 = DIRECTION ( 'NONE',  ( 1.000000000000000000, 0.0000000000000000000, -1.138269997360109700E-017 ) ) ;
#176 = CARTESIAN_POINT ( 'NONE',  ( -9.325873406851310200E-015, -1.776356839400250100E-015, 2.813270023564939900 ) ) ;
#177 = CARTESIAN_POINT ( 'NONE',  ( -12.88222206250527100, -12.94714089709692000, -0.9675198104168354400 ) ) ;
#178 = FACE_OUTER_BOUND ( 'NONE', #93, .T. ) ;
#179 = CARTESIAN_POINT ( 'NONE',  ( -38.46988004838519300, -12.94714089709691900, 1.890167758023909800 ) ) ;
#180 = LINE ( 'NONE', #47, #131 ) ;
#181 = CARTESIAN_POINT ( 'NONE',  ( -9.325873406851310200E-015, -1.776356839400250100E-015, 2.813270023564940400 ) ) ;
#182 = APPROVAL ( #130, 'UNSPECIFIED' ) ;
#183 = ORIENTED_EDGE ( 'NONE', *, *, #203, .F. ) ;
#184 = PERSON_AND_ORGANIZATION_ROLE ( 'design_supplier' ) ;
#185 = PERSON_AND_ORGANIZATION_ROLE ( 'creator' ) ;
#186 = APPROVAL_STATUS ( 'not_yet_approved' ) ;
#187 = CIRCLE ( 'NONE', #94, 38.10000000000000100 ) ;
#188 = PRODUCT_DEFINITION_SHAPE ( 'NONE', 'NONE',  #68 ) ;
#189 = EDGE_LOOP ( 'NONE', ( #97, #99, #200 ) ) ;
#190 = CARTESIAN_POINT ( 'NONE',  ( 25.72904799439074000, -12.94714089709692200, -0.01320919875658337900 ) ) ;
#191 = EDGE_LOOP ( 'NONE', ( #183, #153, #150, #41, #10 ) ) ;
#192 = CARTESIAN_POINT ( 'NONE',  ( -12.69180523272249900, 38.55382370744889200, 2.881067604094867300 ) ) ;
#193 = DIRECTION ( 'NONE',  ( 1.000000000000000000, 0.0000000000000000000, 0.0000000000000000000 ) ) ;
#194 = CALENDAR_DATE ( 2018, 21, 12 ) ;
#195 = CARTESIAN_POINT ( 'NONE',  ( 37.90124269953388100, 38.55382370744888500, 5.696514648761703500 ) ) ;
#196 = CC_DESIGN_APPROVAL ( #182, ( #25 ) ) ;
#197 = CARTESIAN_POINT ( 'NONE',  ( -1.457167719820518000E-013, -12.94714089709691900, -0.9675198104168413200 ) ) ;
#198 = CARTESIAN_POINT ( 'NONE',  ( -12.88222206250527400, 12.94714089709687800, -0.9675198104168931700 ) ) ;
#199 = PERSON_AND_ORGANIZATION ( #106, #152 ) ;
#200 = ORIENTED_EDGE ( 'NONE', *, *, #218, .T. ) ;
#201 = PRODUCT ( '110-0725E BK7 pl-cx 76.2 F500', '110-0725E BK7 pl-cx 76.2 F500', '', ( #128 ) ) ;
#202 = DIRECTION ( 'NONE',  ( 1.000000000000000000, 0.0000000000000000000, -1.138269997360109700E-017 ) ) ;
#203 = EDGE_CURVE ( 'NONE', #173, #82, #165, .T. ) ;
#204 = PERSON_AND_ORGANIZATION ( #106, #152 ) ;
#205 = COORDINATED_UNIVERSAL_TIME_OFFSET ( 2, 0, .AHEAD. ) ;
#206 = VERTEX_POINT ( 'NONE', #145 ) ;
#207 = CARTESIAN_POINT ( 'NONE',  ( 0.0000000000000000000, 0.0000000000000000000, 0.0000000000000000000 ) ) ;
#208 = LOCAL_TIME ( 9, 7, 1.000000000000000000, #205 ) ;
#209 = DIRECTION ( 'NONE',  ( 1.000000000000000000, 0.0000000000000000000, 0.0000000000000000000 ) ) ;
#210 = LOCAL_TIME ( 9, 7, 1.000000000000000000, #170 ) ;
#211 = EDGE_CURVE ( 'NONE', #206, #77, #36, .T. ) ;
#212 = CARTESIAN_POINT ( 'NONE',  ( -8.652190118748585600E-014, 38.10000000000003000, 2.813270023564951500 ) ) ;
#213 = CARTESIAN_POINT ( 'NONE',  ( -25.34873753796105700, -38.55382370744892700, 3.821272202024116100 ) ) ;
#214 = CYLINDRICAL_SURFACE ( 'NONE', #40, 38.10000000000000100 ) ;
#215 = DIRECTION ( 'NONE',  ( 1.000000000000000000, 1.014630051716460000E-031, -2.264349047295540000E-016 ) ) ;
#216 = ORIENTED_EDGE ( 'NONE', *, *, #132, .F. ) ;
#217 = DIRECTION ( 'NONE',  ( 1.000000000000000000, 0.0000000000000000000, -1.138269997360109700E-017 ) ) ;
#218 = EDGE_CURVE ( 'NONE', #82, #206, #127, .T. ) ;
#219 = PERSON_AND_ORGANIZATION ( #106, #152 ) ;
#220 = AXIS2_PLACEMENT_3D ( 'NONE', #34, #75, #202 ) ;
#221 = CARTESIAN_POINT ( 'NONE',  ( -9.325873406851310200E-015, -1.776356839400250100E-015, 2.813270023564940400 ) ) ;
#222 = CARTESIAN_POINT ( 'NONE',  ( 38.09999999999999400, -1.776356839400250100E-015, 9.700000000000004600 ) ) ;
#223 = PERSON_AND_ORGANIZATION ( #106, #152 ) ;
#224 = VERTEX_POINT ( 'NONE', #222 ) ;
#225 =( LENGTH_UNIT ( ) NAMED_UNIT ( * ) SI_UNIT ( .MILLI., .METRE. ) );
#226 =( NAMED_UNIT ( * ) SI_UNIT ( $, .STERADIAN. ) SOLID_ANGLE_UNIT ( ) );
#227 = APPROVAL_PERSON_ORGANIZATION ( #219, #182, #105 ) ;
#228 = AXIS2_PLACEMENT_3D ( 'NONE', #101, #122, #13 ) ;
#229 = CIRCLE ( 'NONE', #228, 38.10000000000000100 ) ;
#230 = DIRECTION ( 'NONE',  ( 1.165588477296749900E-017, 5.434385993627839900E-034, 1.000000000000000000 ) ) ;
#231 = ADVANCED_FACE ( 'NONE', ( #72 ), #214, .T. ) ;
#232 = CARTESIAN_POINT ( 'NONE',  ( 12.69180523272235400, 38.55382370744889200, 2.881067604094842000 ) ) ;
#233 = APPROVAL_DATE_TIME ( #16, #79 ) ;
#234 = ORIENTED_EDGE ( 'NONE', *, *, #74, .F. ) ;
#235 = CARTESIAN_POINT ( 'NONE',  ( -37.90124269953386000, -38.55382370744892700, 5.696514648761752400 ) ) ;
ENDSEC;
END-ISO-10303-21;
