ISO-10303-21;
HEADER;
FILE_DESCRIPTION (( 'STEP AP203' ),
    '1' );
FILE_NAME ('110-0715E BK7 pl-cx 76.2 F300.STEP',
    '2018-12-21T07:07:24',
    ( '' ),
    ( '' ),
    'SwSTEP 2.0',
    'SolidWorks 2017',
    '' );
FILE_SCHEMA (( 'CONFIG_CONTROL_DESIGN' ));
ENDSEC;

DATA;
#1 =( NAMED_UNIT ( * ) SI_UNIT ( $, .STERADIAN. ) SOLID_ANGLE_UNIT ( ) );
#2 = ORIENTED_EDGE ( 'NONE', *, *, #207, .T. ) ;
#3 = PERSON ( 'UNSPECIFIED', 'UNSPECIFIED', 'UNSPECIFIED', ('UNSPECIFIED'), ('UNSPECIFIED'), ('UNSPECIFIED') ) ;
#4 = UNCERTAINTY_MEASURE_WITH_UNIT (LENGTH_MEASURE( 1.000000000000000100E-005 ), #55, 'distance_accuracy_value', 'NONE');
#5 = VERTEX_POINT ( 'NONE', #63 ) ;
#6 = LOCAL_TIME ( 9, 7, 24.00000000000000000, #23 ) ;
#7 = ORIENTED_EDGE ( 'NONE', *, *, #208, .T. ) ;
#8 = CARTESIAN_POINT ( 'NONE',  ( 38.09999999999999400, -1.776356839400250100E-015, 4.736651236955498900 ) ) ;
#9 =( BOUNDED_SURFACE ( )  B_SPLINE_SURFACE ( 3, 3, ( 
 ( #178, #232, #211, #89 ),
 ( #137, #51, #118, #158 ),
 ( #230, #214, #12, #139 ),
 ( #138, #135, #133, #70 ) ),
 .UNSPECIFIED., .F., .F., .T. ) 
 B_SPLINE_SURFACE_WITH_KNOTS ( ( 4, 4 ),
 ( 4, 4 ),
 ( 0.0000000000000000000, 1.000000000000000000 ),
 ( 0.0000000000000000000, 1.000000000000000000 ),
 .UNSPECIFIED. ) 
 GEOMETRIC_REPRESENTATION_ITEM ( )  RATIONAL_B_SPLINE_SURFACE ( (
 ( 1.000000000000000000, 0.9948457921275024600, 0.9948457921275024600, 1.000000000000000000),
 ( 0.9792184443122439200, 0.9741713488976749800, 0.9741713488976749800, 0.9792184443122439200),
 ( 0.9792184443122439200, 0.9741713488976749800, 0.9741713488976749800, 0.9792184443122439200),
 ( 1.000000000000000000, 0.9948457921275024600, 0.9948457921275024600, 1.000000000000000000) ) ) 
 REPRESENTATION_ITEM ( '' )  SURFACE ( )  );
#10 = AXIS2_PLACEMENT_3D ( 'NONE', #96, #225, #43 ) ;
#11 = CYLINDRICAL_SURFACE ( 'NONE', #30, 38.10000000000000100 ) ;
#12 = CARTESIAN_POINT ( 'NONE',  ( 26.05524573291587500, 13.12191625574658400, -0.02800835352517565300 ) ) ;
#13 = DIRECTION ( 'NONE',  ( 1.000000000000000000, 0.0000000000000000000, 0.0000000000000000000 ) ) ;
#14 = ADVANCED_BREP_SHAPE_REPRESENTATION ( '110-0715E BK7 pl-cx 76.2 F300', ( #156, #114 ), #24 ) ;
#15 = CARTESIAN_POINT ( 'NONE',  ( 1.387778780781445700E-014, 38.54766726704308200, 4.850415097522254200 ) ) ;
#16 = PERSON_AND_ORGANIZATION ( #3, #149 ) ;
#17 = VERTEX_POINT ( 'NONE', #27 ) ;
#18 = APPLICATION_CONTEXT ( 'configuration controlled 3d designs of mechanical parts and assemblies' ) ;
#19 =( NAMED_UNIT ( * ) PLANE_ANGLE_UNIT ( ) SI_UNIT ( $, .RADIAN. ) );
#20 = CALENDAR_DATE ( 2018, 21, 12 ) ;
#21 = CIRCLE ( 'NONE', #50, 38.10000000000000100 ) ;
#22 = PERSON_AND_ORGANIZATION_ROLE ( 'design_owner' ) ;
#23 = COORDINATED_UNIVERSAL_TIME_OFFSET ( 2, 0, .AHEAD. ) ;
#24 =( GEOMETRIC_REPRESENTATION_CONTEXT ( 3 ) GLOBAL_UNCERTAINTY_ASSIGNED_CONTEXT ( ( #4 ) ) GLOBAL_UNIT_ASSIGNED_CONTEXT ( ( #55, #19, #1 ) ) REPRESENTATION_CONTEXT ( 'NONE', 'WORKASPACE' ) );
#25 = LINE ( 'NONE', #8, #176 ) ;
#26 = CARTESIAN_POINT ( 'NONE',  ( 0.0000000000000000000, 13.12191625574658400, -1.651117829630977400 ) ) ;
#27 = CARTESIAN_POINT ( 'NONE',  ( 4.263256414560599900E-014, 38.10000000000001600, 4.736651236955483000 ) ) ;
#28 = ORIENTED_EDGE ( 'NONE', *, *, #136, .T. ) ;
#29 = CARTESIAN_POINT ( 'NONE',  ( 6.938893903907228400E-015, -13.12191625574654600, -1.651117829630927200 ) ) ;
#30 = AXIS2_PLACEMENT_3D ( 'NONE', #200, #201, #166 ) ;
#31 = LOCAL_TIME ( 9, 7, 24.00000000000000000, #179 ) ;
#32 = CARTESIAN_POINT ( 'NONE',  ( -9.163545425219245400E-015, -1.776356839400250100E-015, 11.70000000000000300 ) ) ;
#33 = DIRECTION ( 'NONE',  ( 1.000000000000000000, 0.0000000000000000000, -4.553079989440438700E-017 ) ) ;
#34 = APPROVAL_ROLE ( '' ) ;
#35 = ORIENTED_EDGE ( 'NONE', *, *, #76, .T. ) ;
#36 = APPLICATION_CONTEXT ( 'configuration controlled 3d designs of mechanical parts and assemblies' ) ;
#37 = CC_DESIGN_DATE_AND_TIME_ASSIGNMENT ( #160, #184, ( #125 ) ) ;
#38 = DATE_AND_TIME ( #108, #181 ) ;
#39 = EDGE_CURVE ( 'NONE', #5, #17, #119, .T. ) ;
#40 = CIRCLE ( 'NONE', #94, 38.10000000000000100 ) ;
#41 = APPROVAL ( #54, 'UNSPECIFIED' ) ;
#42 = VERTEX_POINT ( 'NONE', #131 ) ;
#43 = DIRECTION ( 'NONE',  ( 1.000000000000000000, 0.0000000000000000000, -0.0000000000000000000 ) ) ;
#44 = DATE_AND_TIME ( #215, #31 ) ;
#45 = ORIENTED_EDGE ( 'NONE', *, *, #202, .T. ) ;
#46 = CARTESIAN_POINT ( 'NONE',  ( -9.325873406851310200E-015, -1.776356839400250100E-015, 4.736651236955499800 ) ) ;
#47 = ADVANCED_FACE ( 'NONE', ( #62 ), #132, .T. ) ;
#48 = SHAPE_DEFINITION_REPRESENTATION ( #143, #14 ) ;
#49 = DIRECTION ( 'NONE',  ( 2.331176954593499900E-017, 1.086877198725570000E-033, 1.000000000000000000 ) ) ;
#50 = AXIS2_PLACEMENT_3D ( 'NONE', #147, #84, #154 ) ;
#51 = CARTESIAN_POINT ( 'NONE',  ( 13.07817860480004900, -13.12191625574654500, -1.651117829630919500 ) ) ;
#52 = ORIENTED_EDGE ( 'NONE', *, *, #155, .F. ) ;
#53 = PERSON_AND_ORGANIZATION_ROLE ( 'creator' ) ;
#54 = APPROVAL_STATUS ( 'not_yet_approved' ) ;
#55 =( LENGTH_UNIT ( ) NAMED_UNIT ( * ) SI_UNIT ( .MILLI., .METRE. ) );
#56 = ORIENTED_EDGE ( 'NONE', *, *, #219, .T. ) ;
#57 = PERSON_AND_ORGANIZATION ( #3, #149 ) ;
#58 = COORDINATED_UNIVERSAL_TIME_OFFSET ( 2, 0, .AHEAD. ) ;
#59 = EDGE_LOOP ( 'NONE', ( #165, #66, #52, #35, #45 ) ) ;
#60 = CC_DESIGN_PERSON_AND_ORGANIZATION_ASSIGNMENT ( #57, #53, ( #125 ) ) ;
#61 = LOCAL_TIME ( 9, 7, 24.00000000000000000, #122 ) ;
#62 = FACE_OUTER_BOUND ( 'NONE', #105, .T. ) ;
#63 = CARTESIAN_POINT ( 'NONE',  ( 4.263256414560599900E-014, -38.09999999999997300, 4.736651236955510500 ) ) ;
#64 = CARTESIAN_POINT ( 'NONE',  ( -38.73054187968648400, -13.12191625574654800, 3.193113067767452000 ) ) ;
#65 = APPROVAL_DATE_TIME ( #101, #188 ) ;
#66 = ORIENTED_EDGE ( 'NONE', *, *, #136, .F. ) ;
#67 = CARTESIAN_POINT ( 'NONE',  ( -12.53746251959914400, -38.54766726704303900, 4.850415097522315500 ) ) ;
#68 = CARTESIAN_POINT ( 'NONE',  ( -38.10000000000000900, 2.889547465351166000E-015, 4.736651236955500700 ) ) ;
#69 = APPROVAL_PERSON_ORGANIZATION ( #168, #188, #34 ) ;
#70 = CARTESIAN_POINT ( 'NONE',  ( 37.12923120671514000, 38.54766726704308200, 9.494361716367576400 ) ) ;
#71 = CARTESIAN_POINT ( 'NONE',  ( -37.12923120671511200, 38.54766726704308200, 9.494361716367583500 ) ) ;
#72 = PERSON_AND_ORGANIZATION_ROLE ( 'creator' ) ;
#73 = CALENDAR_DATE ( 2018, 21, 12 ) ;
#74 = ORIENTED_EDGE ( 'NONE', *, *, #202, .F. ) ;
#75 = DATE_TIME_ROLE ( 'classification_date' ) ;
#76 = EDGE_CURVE ( 'NONE', #189, #209, #25, .T. ) ;
#77 = DESIGN_CONTEXT ( 'detailed design', #18, 'design' ) ;
#78 = PRODUCT ( '110-0715E BK7 pl-cx 76.2 F300', '110-0715E BK7 pl-cx 76.2 F300', '', ( #162 ) ) ;
#79 = CARTESIAN_POINT ( 'NONE',  ( -38.10000000000000900, 2.889547465351166000E-015, 11.70000000000000500 ) ) ;
#80 = PERSON_AND_ORGANIZATION ( #3, #149 ) ;
#81 = CC_DESIGN_PERSON_AND_ORGANIZATION_ASSIGNMENT ( #205, #235, ( #169 ) ) ;
#82 = ORIENTED_EDGE ( 'NONE', *, *, #39, .F. ) ;
#83 = AXIS2_PLACEMENT_3D ( 'NONE', #46, #87, #100 ) ;
#84 = DIRECTION ( 'NONE',  ( -2.331176954593499900E-017, -1.086877198725570000E-033, -1.000000000000000000 ) ) ;
#85 = CARTESIAN_POINT ( 'NONE',  ( -26.05524573291584300, 13.12191625574658500, -0.02800835352517435500 ) ) ;
#86 = CARTESIAN_POINT ( 'NONE',  ( -9.325873406851310200E-015, -1.776356839400250100E-015, 4.736651236955500700 ) ) ;
#87 = DIRECTION ( 'NONE',  ( 2.331176954593499900E-017, 1.086877198725570000E-033, 1.000000000000000000 ) ) ;
#88 = CC_DESIGN_SECURITY_CLASSIFICATION ( #110, ( #169 ) ) ;
#89 = CARTESIAN_POINT ( 'NONE',  ( 37.12923120671511900, -38.54766726704303900, 9.494361716367627900 ) ) ;
#90 = CLOSED_SHELL ( 'NONE', ( #193, #223, #171, #191, #47 ) ) ;
#91 = ORIENTED_EDGE ( 'NONE', *, *, #219, .F. ) ;
#92 = APPROVAL_PERSON_ORGANIZATION ( #80, #41, #183 ) ;
#93 = ORIENTED_EDGE ( 'NONE', *, *, #76, .F. ) ;
#94 = AXIS2_PLACEMENT_3D ( 'NONE', #218, #106, #185 ) ;
#95 = PRODUCT_RELATED_PRODUCT_CATEGORY ( 'detail', '', ( #78 ) ) ;
#96 = CARTESIAN_POINT ( 'NONE',  ( 0.0000000000000000000, 77.92799999999999700, 11.70000000000000100 ) ) ;
#97 = ORIENTED_EDGE ( 'NONE', *, *, #39, .T. ) ;
#98 = CARTESIAN_POINT ( 'NONE',  ( -13.07817860480000500, -13.12191625574654300, -1.651117829630923900 ) ) ;
#99 = CC_DESIGN_PERSON_AND_ORGANIZATION_ASSIGNMENT ( #170, #72, ( #169 ) ) ;
#100 = DIRECTION ( 'NONE',  ( 1.000000000000000000, 0.0000000000000000000, -2.276539994720219300E-017 ) ) ;
#101 = DATE_AND_TIME ( #221, #6 ) ;
#102 = FACE_OUTER_BOUND ( 'NONE', #59, .T. ) ;
#103 = PERSON_AND_ORGANIZATION_ROLE ( 'classification_officer' ) ;
#104 = APPROVAL_ROLE ( '' ) ;
#105 = EDGE_LOOP ( 'NONE', ( #74, #91 ) ) ;
#106 = DIRECTION ( 'NONE',  ( -2.331176954593499900E-017, -1.086877198725570000E-033, -1.000000000000000000 ) ) ;
#107 = APPROVAL_DATE_TIME ( #38, #41 ) ;
#108 = CALENDAR_DATE ( 2018, 21, 12 ) ;
#109 = ORIENTED_EDGE ( 'NONE', *, *, #155, .T. ) ;
#110 = SECURITY_CLASSIFICATION ( '', '', #199 ) ;
#111 = CARTESIAN_POINT ( 'NONE',  ( -9.325873406851310200E-015, -1.776356839400250100E-015, 4.736651236955500700 ) ) ;
#112 = DIRECTION ( 'NONE',  ( 1.000000000000000000, 0.0000000000000000000, 0.0000000000000000000 ) ) ;
#113 = ORIENTED_EDGE ( 'NONE', *, *, #208, .F. ) ;
#114 = AXIS2_PLACEMENT_3D ( 'NONE', #213, #196, #13 ) ;
#115 = CARTESIAN_POINT ( 'NONE',  ( -13.07817860480001600, 13.12191625574658500, -1.651117829630973600 ) ) ;
#116 = DIRECTION ( 'NONE',  ( -2.331176954593499900E-017, -1.086877198725570000E-033, -1.000000000000000000 ) ) ;
#117 = CARTESIAN_POINT ( 'NONE',  ( -12.53746251959913800, 38.54766726704308200, 4.850415097522256900 ) ) ;
#118 = CARTESIAN_POINT ( 'NONE',  ( 26.05524573291586400, -13.12191625574654500, -0.02800835352512751100 ) ) ;
#119 = CIRCLE ( 'NONE', #198, 155.5999999999999900 ) ;
#120 = APPLICATION_PROTOCOL_DEFINITION ( 'international standard', 'config_control_design', 1994, #36 ) ;
#121 = CC_DESIGN_PERSON_AND_ORGANIZATION_ASSIGNMENT ( #203, #22, ( #78 ) ) ;
#122 = COORDINATED_UNIVERSAL_TIME_OFFSET ( 2, 0, .AHEAD. ) ;
#123 =( BOUNDED_SURFACE ( )  B_SPLINE_SURFACE ( 3, 3, ( 
 ( #227, #172, #67, #177 ),
 ( #64, #210, #98, #29 ),
 ( #194, #85, #115, #26 ),
 ( #71, #231, #117, #15 ) ),
 .UNSPECIFIED., .F., .F., .T. ) 
 B_SPLINE_SURFACE_WITH_KNOTS ( ( 4, 4 ),
 ( 4, 4 ),
 ( 0.0000000000000000000, 1.000000000000000000 ),
 ( 0.0000000000000000000, 1.000000000000000000 ),
 .UNSPECIFIED. ) 
 GEOMETRIC_REPRESENTATION_ITEM ( )  RATIONAL_B_SPLINE_SURFACE ( (
 ( 1.000000000000000000, 0.9948457921275024600, 0.9948457921275024600, 1.000000000000000000),
 ( 0.9792184443122439200, 0.9741713488976749800, 0.9741713488976749800, 0.9792184443122439200),
 ( 0.9792184443122439200, 0.9741713488976749800, 0.9741713488976749800, 0.9792184443122439200),
 ( 1.000000000000000000, 0.9948457921275024600, 0.9948457921275024600, 1.000000000000000000) ) ) 
 REPRESENTATION_ITEM ( '' )  SURFACE ( )  );
#124 = CIRCLE ( 'NONE', #233, 38.10000000000000100 ) ;
#125 = PRODUCT_DEFINITION ( 'UNKNOWN', '', #169, #77 ) ;
#126 = FACE_OUTER_BOUND ( 'NONE', #197, .T. ) ;
#127 = DIRECTION ( 'NONE',  ( -2.331176954593499900E-017, -1.086877198725570000E-033, -1.000000000000000000 ) ) ;
#128 = AXIS2_PLACEMENT_3D ( 'NONE', #111, #127, #173 ) ;
#129 = DIRECTION ( 'NONE',  ( 2.331176954593499900E-017, 1.086877198725570000E-033, 1.000000000000000000 ) ) ;
#130 = FACE_OUTER_BOUND ( 'NONE', #187, .T. ) ;
#131 = CARTESIAN_POINT ( 'NONE',  ( -38.10000000000000900, 2.889547465351166000E-015, 4.736651236955501600 ) ) ;
#132 = PLANE ( 'NONE',  #10 ) ;
#133 = CARTESIAN_POINT ( 'NONE',  ( 24.97799400716883200, 38.54766726704308200, 6.406417262411934200 ) ) ;
#134 = ORIENTED_EDGE ( 'NONE', *, *, #161, .F. ) ;
#135 = CARTESIAN_POINT ( 'NONE',  ( 12.53746251959918500, 38.54766726704308200, 4.850415097522264900 ) ) ;
#136 = EDGE_CURVE ( 'NONE', #5, #42, #182, .T. ) ;
#137 = CARTESIAN_POINT ( 'NONE',  ( 4.263256414560600500E-014, -13.12191625574654800, -1.651117829630919700 ) ) ;
#138 = CARTESIAN_POINT ( 'NONE',  ( 4.263256414560599900E-014, 38.54766726704308200, 4.850415097522264900 ) ) ;
#139 = CARTESIAN_POINT ( 'NONE',  ( 38.73054187968652000, 13.12191625574657800, 3.193113067767394200 ) ) ;
#140 = CYLINDRICAL_SURFACE ( 'NONE', #83, 38.10000000000000100 ) ;
#141 = APPLICATION_PROTOCOL_DEFINITION ( 'international standard', 'config_control_design', 1994, #18 ) ;
#142 = DIRECTION ( 'NONE',  ( 1.000000000000000000, 1.776356839400250500E-015, -2.276539994720219300E-017 ) ) ;
#143 = PRODUCT_DEFINITION_SHAPE ( 'NONE', 'NONE',  #125 ) ;
#144 = CC_DESIGN_APPROVAL ( #188, ( #125 ) ) ;
#145 = DATE_AND_TIME ( #73, #175 ) ;
#146 = AXIS2_PLACEMENT_3D ( 'NONE', #32, #157, #33 ) ;
#147 = CARTESIAN_POINT ( 'NONE',  ( -9.325873406851310200E-015, -1.776356839400250100E-015, 4.736651236955500700 ) ) ;
#148 = PERSON_AND_ORGANIZATION ( #3, #149 ) ;
#149 = ORGANIZATION ( 'UNSPECIFIED', 'UNSPECIFIED', '' ) ;
#150 = DIRECTION ( 'NONE',  ( 1.000000000000000000, -8.881784197001252300E-016, -2.276539994720219300E-017 ) ) ;
#151 = CARTESIAN_POINT ( 'NONE',  ( 4.263256414560599900E-014, 4.263256414560599900E-014, 155.5999999999999900 ) ) ;
#152 = COORDINATED_UNIVERSAL_TIME_OFFSET ( 2, 0, .AHEAD. ) ;
#153 = CIRCLE ( 'NONE', #228, 38.10000000000000100 ) ;
#154 = DIRECTION ( 'NONE',  ( 1.000000000000000000, 0.0000000000000000000, -2.276539994720219300E-017 ) ) ;
#155 = EDGE_CURVE ( 'NONE', #189, #5, #21, .T. ) ;
#156 = MANIFOLD_SOLID_BREP ( 'Imported1', #90 ) ;
#157 = DIRECTION ( 'NONE',  ( -2.331176954593499900E-017, -1.086877198725570000E-033, -1.000000000000000000 ) ) ;
#158 = CARTESIAN_POINT ( 'NONE',  ( 38.73054187968650600, -13.12191625574655000, 3.193113067767441700 ) ) ;
#159 = CARTESIAN_POINT ( 'NONE',  ( 38.09999999999999400, -1.776356839400250100E-015, 11.70000000000000100 ) ) ;
#160 = DATE_AND_TIME ( #20, #61 ) ;
#161 = EDGE_CURVE ( 'NONE', #42, #17, #124, .T. ) ;
#162 = MECHANICAL_CONTEXT ( 'NONE', #36, 'mechanical' ) ;
#163 = APPROVAL_PERSON_ORGANIZATION ( #16, #180, #104 ) ;
#164 = APPROVAL_STATUS ( 'not_yet_approved' ) ;
#165 = ORIENTED_EDGE ( 'NONE', *, *, #207, .F. ) ;
#166 = DIRECTION ( 'NONE',  ( 1.000000000000000000, 0.0000000000000000000, -2.276539994720219300E-017 ) ) ;
#167 = CC_DESIGN_PERSON_AND_ORGANIZATION_ASSIGNMENT ( #148, #103, ( #110 ) ) ;
#168 = PERSON_AND_ORGANIZATION ( #3, #149 ) ;
#169 = PRODUCT_DEFINITION_FORMATION_WITH_SPECIFIED_SOURCE ( 'ANY', '', #78, .NOT_KNOWN. ) ;
#170 = PERSON_AND_ORGANIZATION ( #3, #149 ) ;
#171 = ADVANCED_FACE ( 'NONE', ( #126 ), #123, .T. ) ;
#172 = CARTESIAN_POINT ( 'NONE',  ( -24.97799400716879600, -38.54766726704303900, 6.406417262411991900 ) ) ;
#173 = DIRECTION ( 'NONE',  ( 1.000000000000000000, 0.0000000000000000000, -2.276539994720219300E-017 ) ) ;
#174 = CARTESIAN_POINT ( 'NONE',  ( -9.325873406851310200E-015, -1.776356839400250100E-015, 4.736651236955500700 ) ) ;
#175 = LOCAL_TIME ( 9, 7, 24.00000000000000000, #152 ) ;
#176 = VECTOR ( 'NONE', #129, 1000.000000000000000 ) ;
#177 = CARTESIAN_POINT ( 'NONE',  ( 0.0000000000000000000, -38.54766726704303900, 4.850415097522311900 ) ) ;
#178 = CARTESIAN_POINT ( 'NONE',  ( 4.263256414560599900E-014, -38.54766726704303900, 4.850415097522320800 ) ) ;
#179 = COORDINATED_UNIVERSAL_TIME_OFFSET ( 2, 0, .AHEAD. ) ;
#180 = APPROVAL ( #217, 'UNSPECIFIED' ) ;
#181 = LOCAL_TIME ( 9, 7, 24.00000000000000000, #58 ) ;
#182 = CIRCLE ( 'NONE', #128, 38.10000000000000100 ) ;
#183 = APPROVAL_ROLE ( '' ) ;
#184 = DATE_TIME_ROLE ( 'creation_date' ) ;
#185 = DIRECTION ( 'NONE',  ( 1.000000000000000000, 0.0000000000000000000, -4.553079989440438700E-017 ) ) ;
#186 = CC_DESIGN_APPROVAL ( #41, ( #169 ) ) ;
#187 = EDGE_LOOP ( 'NONE', ( #134, #2, #56, #93, #113 ) ) ;
#188 = APPROVAL ( #164, 'UNSPECIFIED' ) ;
#189 = VERTEX_POINT ( 'NONE', #226 ) ;
#190 = CC_DESIGN_APPROVAL ( #180, ( #110 ) ) ;
#191 = ADVANCED_FACE ( 'NONE', ( #102 ), #140, .T. ) ;
#192 = DIRECTION ( 'NONE',  ( 0.0000000000000000000, -1.000000000000000000, -3.567554706379037700E-016 ) ) ;
#193 = ADVANCED_FACE ( 'NONE', ( #216 ), #9, .T. ) ;
#194 = CARTESIAN_POINT ( 'NONE',  ( -38.73054187968649800, 13.12191625574658200, 3.193113067767403100 ) ) ;
#195 = EDGE_LOOP ( 'NONE', ( #109, #97, #7 ) ) ;
#196 = DIRECTION ( 'NONE',  ( 0.0000000000000000000, 0.0000000000000000000, 1.000000000000000000 ) ) ;
#197 = EDGE_LOOP ( 'NONE', ( #82, #28, #222 ) ) ;
#198 = AXIS2_PLACEMENT_3D ( 'NONE', #151, #112, #192 ) ;
#199 = SECURITY_CLASSIFICATION_LEVEL ( 'unclassified' ) ;
#200 = CARTESIAN_POINT ( 'NONE',  ( -9.325873406851310200E-015, -1.776356839400250100E-015, 4.736651236955499800 ) ) ;
#201 = DIRECTION ( 'NONE',  ( 2.331176954593499900E-017, 1.086877198725570000E-033, 1.000000000000000000 ) ) ;
#202 = EDGE_CURVE ( 'NONE', #209, #229, #206, .T. ) ;
#203 = PERSON_AND_ORGANIZATION ( #3, #149 ) ;
#204 = LINE ( 'NONE', #68, #234 ) ;
#205 = PERSON_AND_ORGANIZATION ( #3, #149 ) ;
#206 = CIRCLE ( 'NONE', #146, 38.10000000000000100 ) ;
#207 = EDGE_CURVE ( 'NONE', #42, #229, #204, .T. ) ;
#208 = EDGE_CURVE ( 'NONE', #17, #189, #153, .T. ) ;
#209 = VERTEX_POINT ( 'NONE', #159 ) ;
#210 = CARTESIAN_POINT ( 'NONE',  ( -26.05524573291583900, -13.12191625574654300, -0.02800835352512491500 ) ) ;
#211 = CARTESIAN_POINT ( 'NONE',  ( 24.97799400716882400, -38.54766726704303900, 6.406417262411989300 ) ) ;
#212 = CC_DESIGN_DATE_AND_TIME_ASSIGNMENT ( #145, #75, ( #110 ) ) ;
#213 = CARTESIAN_POINT ( 'NONE',  ( 0.0000000000000000000, 0.0000000000000000000, 0.0000000000000000000 ) ) ;
#214 = CARTESIAN_POINT ( 'NONE',  ( 13.07817860480004900, 13.12191625574658400, -1.651117829630967900 ) ) ;
#215 = CALENDAR_DATE ( 2018, 21, 12 ) ;
#216 = FACE_OUTER_BOUND ( 'NONE', #195, .T. ) ;
#217 = APPROVAL_STATUS ( 'not_yet_approved' ) ;
#218 = CARTESIAN_POINT ( 'NONE',  ( -9.163545425219245400E-015, -1.776356839400250100E-015, 11.70000000000000300 ) ) ;
#219 = EDGE_CURVE ( 'NONE', #229, #209, #40, .T. ) ;
#220 = APPROVAL_DATE_TIME ( #44, #180 ) ;
#221 = CALENDAR_DATE ( 2018, 21, 12 ) ;
#222 = ORIENTED_EDGE ( 'NONE', *, *, #161, .T. ) ;
#223 = ADVANCED_FACE ( 'NONE', ( #130 ), #11, .T. ) ;
#224 = DIRECTION ( 'NONE',  ( -2.331176954593499900E-017, -1.086877198725570000E-033, -1.000000000000000000 ) ) ;
#225 = DIRECTION ( 'NONE',  ( 0.0000000000000000000, 0.0000000000000000000, 1.000000000000000000 ) ) ;
#226 = CARTESIAN_POINT ( 'NONE',  ( 38.09999999999999400, -1.776356839400250100E-015, 4.736651236955499800 ) ) ;
#227 = CARTESIAN_POINT ( 'NONE',  ( -37.12923120671509700, -38.54766726704303900, 9.494361716367638600 ) ) ;
#228 = AXIS2_PLACEMENT_3D ( 'NONE', #86, #116, #142 ) ;
#229 = VERTEX_POINT ( 'NONE', #79 ) ;
#230 = CARTESIAN_POINT ( 'NONE',  ( 4.263256414560600500E-014, 13.12191625574658200, -1.651117829630967900 ) ) ;
#231 = CARTESIAN_POINT ( 'NONE',  ( -24.97799400716880000, 38.54766726704308200, 6.406417262411935100 ) ) ;
#232 = CARTESIAN_POINT ( 'NONE',  ( 12.53746251959917400, -38.54766726704303900, 4.850415097522320800 ) ) ;
#233 = AXIS2_PLACEMENT_3D ( 'NONE', #174, #224, #150 ) ;
#234 = VECTOR ( 'NONE', #49, 1000.000000000000000 ) ;
#235 = PERSON_AND_ORGANIZATION_ROLE ( 'design_supplier' ) ;
ENDSEC;
END-ISO-10303-21;
