ISO-10303-21;
HEADER;
FILE_DESCRIPTION (( 'STEP AP203' ),
    '1' );
FILE_NAME ('110-0711E BK7 pl-cx 76.2 F250.STEP',
    '2018-12-21T07:07:34',
    ( '' ),
    ( '' ),
    'SwSTEP 2.0',
    'SolidWorks 2017',
    '' );
FILE_SCHEMA (( 'CONFIG_CONTROL_DESIGN' ));
ENDSEC;

DATA;
#1 = CARTESIAN_POINT ( 'NONE',  ( 0.0000000000000000000, 0.0000000000000000000, 0.0000000000000000000 ) ) ;
#2 = EDGE_LOOP ( 'NONE', ( #199, #6 ) ) ;
#3 = PERSON_AND_ORGANIZATION ( #108, #32 ) ;
#4 = FACE_OUTER_BOUND ( 'NONE', #166, .T. ) ;
#5 = APPROVAL_DATE_TIME ( #165, #151 ) ;
#6 = ORIENTED_EDGE ( 'NONE', *, *, #41, .F. ) ;
#7 = DIRECTION ( 'NONE',  ( 1.000000000000000000, 0.0000000000000000000, -2.276539994720219300E-017 ) ) ;
#8 = AXIS2_PLACEMENT_3D ( 'NONE', #11, #43, #7 ) ;
#9 = CARTESIAN_POINT ( 'NONE',  ( 38.91672267487336300, 13.24673468995898600, 3.866750673419056200 ) ) ;
#10 = CC_DESIGN_PERSON_AND_ORGANIZATION_ASSIGNMENT ( #63, #187, ( #80 ) ) ;
#11 = CARTESIAN_POINT ( 'NONE',  ( -9.325873406851310200E-015, -1.776356839400250100E-015, 5.722260062541880500 ) ) ;
#12 = APPROVAL_STATUS ( 'not_yet_approved' ) ;
#13 = CARTESIAN_POINT ( 'NONE',  ( -24.71707695552092000, 38.54332662959534200, 7.716269698160261600 ) ) ;
#14 = CARTESIAN_POINT ( 'NONE',  ( 38.09999999999999400, -1.776356839400250100E-015, 5.722260062541879600 ) ) ;
#15 = AXIS2_PLACEMENT_3D ( 'NONE', #169, #98, #136 ) ;
#16 = APPROVAL_PERSON_ORGANIZATION ( #212, #211, #99 ) ;
#17 =( NAMED_UNIT ( * ) PLANE_ANGLE_UNIT ( ) SI_UNIT ( $, .RADIAN. ) );
#18 = VECTOR ( 'NONE', #19, 1000.000000000000000 ) ;
#19 = DIRECTION ( 'NONE',  ( 2.331176954593499900E-017, 1.086877198725570000E-033, 1.000000000000000000 ) ) ;
#20 = AXIS2_PLACEMENT_3D ( 'NONE', #101, #198, #52 ) ;
#21 = CALENDAR_DATE ( 2018, 21, 12 ) ;
#22 = LOCAL_TIME ( 9, 7, 34.00000000000000000, #116 ) ;
#23 = AXIS2_PLACEMENT_3D ( 'NONE', #234, #73, #127 ) ;
#24 = CIRCLE ( 'NONE', #146, 38.10000000000000100 ) ;
#25 = CC_DESIGN_PERSON_AND_ORGANIZATION_ASSIGNMENT ( #67, #195, ( #231 ) ) ;
#26 = CARTESIAN_POINT ( 'NONE',  ( 26.28845979300626100, -13.24673468995897000, -0.03881965134888048400 ) ) ;
#27 = CARTESIAN_POINT ( 'NONE',  ( -4.225269627581704000E-014, -38.54332662959533500, 5.859368653400642800 ) ) ;
#28 = CIRCLE ( 'NONE', #8, 38.10000000000000100 ) ;
#29 = CARTESIAN_POINT ( 'NONE',  ( 24.71707695552087700, 38.54332662959534900, 7.716269698160244800 ) ) ;
#30 = CARTESIAN_POINT ( 'NONE',  ( 0.0000000000000000000, 77.92799999999999700, 12.69999999999999900 ) ) ;
#31 = CC_DESIGN_PERSON_AND_ORGANIZATION_ASSIGNMENT ( #105, #92, ( #125 ) ) ;
#32 = ORGANIZATION ( 'UNSPECIFIED', 'UNSPECIFIED', '' ) ;
#33 = CARTESIAN_POINT ( 'NONE',  ( -38.91672267487336300, 13.24673468995898200, 3.866750673419060200 ) ) ;
#34 = APPLICATION_CONTEXT ( 'configuration controlled 3d designs of mechanical parts and assemblies' ) ;
#35 = CIRCLE ( 'NONE', #132, 38.10000000000000100 ) ;
#36 = DIRECTION ( 'NONE',  ( 1.000000000000000000, 0.0000000000000000000, -0.0000000000000000000 ) ) ;
#37 = EDGE_CURVE ( 'NONE', #124, #171, #145, .T. ) ;
#38 =( NAMED_UNIT ( * ) SI_UNIT ( $, .STERADIAN. ) SOLID_ANGLE_UNIT ( ) );
#39 = PERSON_AND_ORGANIZATION ( #108, #32 ) ;
#40 = EDGE_CURVE ( 'NONE', #72, #97, #28, .T. ) ;
#41 = EDGE_CURVE ( 'NONE', #171, #124, #95, .T. ) ;
#42 = ORIENTED_EDGE ( 'NONE', *, *, #41, .T. ) ;
#43 = DIRECTION ( 'NONE',  ( -2.331176954593499900E-017, -1.086877198725570000E-033, -1.000000000000000000 ) ) ;
#44 = COORDINATED_UNIVERSAL_TIME_OFFSET ( 2, 0, .AHEAD. ) ;
#45 = CIRCLE ( 'NONE', #20, 129.6999999999999900 ) ;
#46 = ADVANCED_FACE ( 'NONE', ( #55 ), #167, .T. ) ;
#47 = APPROVAL_STATUS ( 'not_yet_approved' ) ;
#48 = CARTESIAN_POINT ( 'NONE',  ( -4.403545030612290100E-014, 13.24673468995898600, -2.013772779609065200 ) ) ;
#49 = EDGE_CURVE ( 'NONE', #97, #103, #35, .T. ) ;
#50 = CARTESIAN_POINT ( 'NONE',  ( -26.28845979300630700, 13.24673468995898200, -0.03881965134885749500 ) ) ;
#51 = EDGE_CURVE ( 'NONE', #117, #97, #45, .T. ) ;
#52 = DIRECTION ( 'NONE',  ( 0.0000000000000000000, -1.000000000000000000, -4.279965399480172100E-016 ) ) ;
#53 = ORIENTED_EDGE ( 'NONE', *, *, #49, .F. ) ;
#54 = APPLICATION_CONTEXT ( 'configuration controlled 3d designs of mechanical parts and assemblies' ) ;
#55 = FACE_OUTER_BOUND ( 'NONE', #178, .T. ) ;
#56 = APPROVAL_DATE_TIME ( #148, #134 ) ;
#57 = ORIENTED_EDGE ( 'NONE', *, *, #40, .F. ) ;
#58 = MANIFOLD_SOLID_BREP ( 'Imported1', #204 ) ;
#59 = LOCAL_TIME ( 9, 7, 34.00000000000000000, #81 ) ;
#60 = FACE_OUTER_BOUND ( 'NONE', #2, .T. ) ;
#61 = AXIS2_PLACEMENT_3D ( 'NONE', #30, #109, #36 ) ;
#62 = FACE_OUTER_BOUND ( 'NONE', #225, .T. ) ;
#63 = PERSON_AND_ORGANIZATION ( #108, #32 ) ;
#64 = ORIENTED_EDGE ( 'NONE', *, *, #74, .T. ) ;
#65 = DATE_TIME_ROLE ( 'classification_date' ) ;
#66 = CARTESIAN_POINT ( 'NONE',  ( -36.59049015368383100, -38.54332662959534200, 11.38838601964094200 ) ) ;
#67 = PERSON_AND_ORGANIZATION ( #108, #32 ) ;
#68 = CARTESIAN_POINT ( 'NONE',  ( -12.42828947413102700, 38.54332662959534900, 5.859368653400667700 ) ) ;
#69 = PLANE ( 'NONE',  #61 ) ;
#70 = DIRECTION ( 'NONE',  ( -2.331176954593499900E-017, -1.086877198725570000E-033, -1.000000000000000000 ) ) ;
#71 = CALENDAR_DATE ( 2018, 21, 12 ) ;
#72 = VERTEX_POINT ( 'NONE', #214 ) ;
#73 = DIRECTION ( 'NONE',  ( 2.331176954593499900E-017, 1.086877198725570000E-033, 1.000000000000000000 ) ) ;
#74 = EDGE_CURVE ( 'NONE', #103, #117, #24, .T. ) ;
#75 = DIRECTION ( 'NONE',  ( 1.000000000000000000, 0.0000000000000000000, 0.0000000000000000000 ) ) ;
#76 = LOCAL_TIME ( 9, 7, 34.00000000000000000, #44 ) ;
#77 = SECURITY_CLASSIFICATION ( '', '', #209 ) ;
#78 = LOCAL_TIME ( 9, 7, 34.00000000000000000, #222 ) ;
#79 = ORIENTED_EDGE ( 'NONE', *, *, #129, .F. ) ;
#80 = PRODUCT_DEFINITION ( 'UNKNOWN', '', #231, #207 ) ;
#81 = COORDINATED_UNIVERSAL_TIME_OFFSET ( 2, 0, .AHEAD. ) ;
#82 = CARTESIAN_POINT ( 'NONE',  ( 12.42828947413095400, 38.54332662959534900, 5.859368653400654400 ) ) ;
#83 = CARTESIAN_POINT ( 'NONE',  ( -4.403545030612290800E-014, -13.24673468995897200, -2.013772779609070500 ) ) ;
#84 = CALENDAR_DATE ( 2018, 21, 12 ) ;
#85 = ORIENTED_EDGE ( 'NONE', *, *, #181, .F. ) ;
#86 = AXIS2_PLACEMENT_3D ( 'NONE', #115, #226, #224 ) ;
#87 = CARTESIAN_POINT ( 'NONE',  ( -26.28845979300630700, -13.24673468995897400, -0.03881965134886269900 ) ) ;
#88 = CYLINDRICAL_SURFACE ( 'NONE', #23, 38.10000000000000100 ) ;
#89 = CARTESIAN_POINT ( 'NONE',  ( -7.632783294297950000E-014, 13.24673468995898600, -2.013772779609055900 ) ) ;
#90 = CYLINDRICAL_SURFACE ( 'NONE', #223, 38.10000000000000100 ) ;
#91 = DIRECTION ( 'NONE',  ( 0.0000000000000000000, 0.0000000000000000000, 1.000000000000000000 ) ) ;
#92 = PERSON_AND_ORGANIZATION_ROLE ( 'design_owner' ) ;
#93 = ORIENTED_EDGE ( 'NONE', *, *, #37, .T. ) ;
#94 = PERSON_AND_ORGANIZATION ( #108, #32 ) ;
#95 = CIRCLE ( 'NONE', #86, 38.10000000000000100 ) ;
#96 = ORIENTED_EDGE ( 'NONE', *, *, #51, .F. ) ;
#97 = VERTEX_POINT ( 'NONE', #172 ) ;
#98 = DIRECTION ( 'NONE',  ( -2.331176954593499900E-017, -1.086877198725570000E-033, -1.000000000000000000 ) ) ;
#99 = APPROVAL_ROLE ( '' ) ;
#100 = CARTESIAN_POINT ( 'NONE',  ( 13.21841529742687600, 13.24673468995899000, -2.013772779609068300 ) ) ;
#101 = CARTESIAN_POINT ( 'NONE',  ( -1.421085471520200100E-014, -1.421085471520200100E-014, 129.6999999999999900 ) ) ;
#102 = CARTESIAN_POINT ( 'NONE',  ( -9.325873406851310200E-015, -1.776356839400250100E-015, 5.722260062541879600 ) ) ;
#103 = VERTEX_POINT ( 'NONE', #14 ) ;
#104 = APPLICATION_PROTOCOL_DEFINITION ( 'international standard', 'config_control_design', 1994, #54 ) ;
#105 = PERSON_AND_ORGANIZATION ( #108, #32 ) ;
#106 = APPROVAL_ROLE ( '' ) ;
#107 = ORIENTED_EDGE ( 'NONE', *, *, #40, .T. ) ;
#108 = PERSON ( 'UNSPECIFIED', 'UNSPECIFIED', 'UNSPECIFIED', ('UNSPECIFIED'), ('UNSPECIFIED'), ('UNSPECIFIED') ) ;
#109 = DIRECTION ( 'NONE',  ( 0.0000000000000000000, 0.0000000000000000000, 1.000000000000000000 ) ) ;
#110 = CC_DESIGN_PERSON_AND_ORGANIZATION_ASSIGNMENT ( #39, #120, ( #77 ) ) ;
#111 = DATE_AND_TIME ( #84, #143 ) ;
#112 = ADVANCED_FACE ( 'NONE', ( #62 ), #189, .T. ) ;
#113 = ADVANCED_FACE ( 'NONE', ( #4 ), #90, .T. ) ;
#114 = PERSON_AND_ORGANIZATION_ROLE ( 'design_supplier' ) ;
#115 = CARTESIAN_POINT ( 'NONE',  ( -9.163209941477820500E-015, -1.776356839400250100E-015, 12.69999999999999900 ) ) ;
#116 = COORDINATED_UNIVERSAL_TIME_OFFSET ( 2, 0, .AHEAD. ) ;
#117 = VERTEX_POINT ( 'NONE', #157 ) ;
#118 = CARTESIAN_POINT ( 'NONE',  ( -13.21841529742695300, 13.24673468995898400, -2.013772779609049700 ) ) ;
#119 = DATE_AND_TIME ( #168, #59 ) ;
#120 = PERSON_AND_ORGANIZATION_ROLE ( 'classification_officer' ) ;
#121 = DIRECTION ( 'NONE',  ( 1.000000000000000000, 0.0000000000000000000, -2.276539994720219300E-017 ) ) ;
#122 = CC_DESIGN_DATE_AND_TIME_ASSIGNMENT ( #197, #65, ( #77 ) ) ;
#123 = PERSON_AND_ORGANIZATION ( #108, #32 ) ;
#124 = VERTEX_POINT ( 'NONE', #160 ) ;
#125 = PRODUCT ( '110-0711E BK7 pl-cx 76.2 F250', '110-0711E BK7 pl-cx 76.2 F250', '', ( #215 ) ) ;
#126 = CARTESIAN_POINT ( 'NONE',  ( -9.325873406851310200E-015, -1.776356839400250100E-015, 5.722260062541880500 ) ) ;
#127 = DIRECTION ( 'NONE',  ( 1.000000000000000000, 0.0000000000000000000, -2.276539994720219300E-017 ) ) ;
#128 = CARTESIAN_POINT ( 'NONE',  ( 38.09999999999999400, -1.776356839400250100E-015, 5.722260062541878700 ) ) ;
#129 = EDGE_CURVE ( 'NONE', #117, #72, #213, .T. ) ;
#130 = SHAPE_DEFINITION_REPRESENTATION ( #147, #218 ) ;
#131 = ORIENTED_EDGE ( 'NONE', *, *, #129, .T. ) ;
#132 = AXIS2_PLACEMENT_3D ( 'NONE', #177, #70, #174 ) ;
#133 = CARTESIAN_POINT ( 'NONE',  ( 12.42828947413095100, -38.54332662959533500, 5.859368653400640200 ) ) ;
#134 = APPROVAL ( #47, 'UNSPECIFIED' ) ;
#135 = LINE ( 'NONE', #217, #220 ) ;
#136 = DIRECTION ( 'NONE',  ( 1.000000000000000000, 0.0000000000000000000, -4.553079989440438700E-017 ) ) ;
#137 = CARTESIAN_POINT ( 'NONE',  ( -38.91672267487336300, -13.24673468995897900, 3.866750673419054400 ) ) ;
#138 = ADVANCED_FACE ( 'NONE', ( #60 ), #69, .T. ) ;
#139 = EDGE_LOOP ( 'NONE', ( #85, #79, #182, #190, #93 ) ) ;
#140 = CARTESIAN_POINT ( 'NONE',  ( -6.938893903907228400E-014, 38.54332662959534900, 5.859368653400662400 ) ) ;
#141 = DIRECTION ( 'NONE',  ( 1.000000000000000000, 0.0000000000000000000, -2.276539994720219300E-017 ) ) ;
#142 = DATE_TIME_ROLE ( 'creation_date' ) ;
#143 = LOCAL_TIME ( 9, 7, 34.00000000000000000, #170 ) ;
#144 = CARTESIAN_POINT ( 'NONE',  ( -9.325873406851310200E-015, -1.776356839400250100E-015, 5.722260062541880500 ) ) ;
#145 = CIRCLE ( 'NONE', #15, 38.10000000000000100 ) ;
#146 = AXIS2_PLACEMENT_3D ( 'NONE', #144, #228, #141 ) ;
#147 = PRODUCT_DEFINITION_SHAPE ( 'NONE', 'NONE',  #80 ) ;
#148 = DATE_AND_TIME ( #21, #76 ) ;
#149 = ORIENTED_EDGE ( 'NONE', *, *, #51, .T. ) ;
#150 = PRODUCT_RELATED_PRODUCT_CATEGORY ( 'detail', '', ( #125 ) ) ;
#151 = APPROVAL ( #216, 'UNSPECIFIED' ) ;
#152 = CARTESIAN_POINT ( 'NONE',  ( -4.225269627581704000E-014, 38.54332662959534900, 5.859368653400657000 ) ) ;
#153 = LINE ( 'NONE', #128, #18 ) ;
#154 = CARTESIAN_POINT ( 'NONE',  ( 38.91672267487336300, -13.24673468995897400, 3.866750673419050900 ) ) ;
#155 = CARTESIAN_POINT ( 'NONE',  ( 36.59049015368382400, -38.54332662959533500, 11.38838601964093800 ) ) ;
#156 = CARTESIAN_POINT ( 'NONE',  ( 36.59049015368383100, 38.54332662959534900, 11.38838601964095300 ) ) ;
#157 = CARTESIAN_POINT ( 'NONE',  ( -4.228374244652574000E-014, -38.10000000000000900, 5.722260062541881400 ) ) ;
#158 = CARTESIAN_POINT ( 'NONE',  ( -12.42828947413102700, -38.54332662959533500, 5.859368653400657000 ) ) ;
#159 = CARTESIAN_POINT ( 'NONE',  ( -7.632783294297951200E-014, -38.54332662959533500, 5.859368653400650800 ) ) ;
#160 = CARTESIAN_POINT ( 'NONE',  ( 38.09999999999999400, -1.776356839400250100E-015, 12.69999999999999800 ) ) ;
#161 = APPLICATION_PROTOCOL_DEFINITION ( 'international standard', 'config_control_design', 1994, #34 ) ;
#162 = APPROVAL_DATE_TIME ( #119, #211 ) ;
#163 = FACE_OUTER_BOUND ( 'NONE', #139, .T. ) ;
#164 = CC_DESIGN_APPROVAL ( #151, ( #80 ) ) ;
#165 = DATE_AND_TIME ( #71, #22 ) ;
#166 = EDGE_LOOP ( 'NONE', ( #57, #232, #42, #185, #53 ) ) ;
#167 =( BOUNDED_SURFACE ( )  B_SPLINE_SURFACE ( 3, 3, ( 
 ( #27, #133, #191, #155 ),
 ( #83, #210, #26, #154 ),
 ( #48, #100, #193, #9 ),
 ( #152, #82, #29, #156 ) ),
 .UNSPECIFIED., .F., .F., .F. ) 
 B_SPLINE_SURFACE_WITH_KNOTS ( ( 4, 4 ),
 ( 4, 4 ),
 ( 0.0000000000000000000, 1.000000000000000000 ),
 ( 0.0000000000000000000, 1.000000000000000000 ),
 .UNSPECIFIED. ) 
 GEOMETRIC_REPRESENTATION_ITEM ( )  RATIONAL_B_SPLINE_SURFACE ( (
 ( 1.000000000000000000, 0.9925169647289259200, 0.9925169647289259200, 1.000000000000000000),
 ( 0.9698824535934174000, 0.9626247889843819700, 0.9626247889843819700, 0.9698824535934174000),
 ( 0.9698824535934174000, 0.9626247889843819700, 0.9626247889843819700, 0.9698824535934174000),
 ( 1.000000000000000000, 0.9925169647289259200, 0.9925169647289259200, 1.000000000000000000) ) ) 
 REPRESENTATION_ITEM ( '' )  SURFACE ( )  );
#168 = CALENDAR_DATE ( 2018, 21, 12 ) ;
#169 = CARTESIAN_POINT ( 'NONE',  ( -9.163209941477820500E-015, -1.776356839400250100E-015, 12.69999999999999900 ) ) ;
#170 = COORDINATED_UNIVERSAL_TIME_OFFSET ( 2, 0, .AHEAD. ) ;
#171 = VERTEX_POINT ( 'NONE', #205 ) ;
#172 = CARTESIAN_POINT ( 'NONE',  ( -4.228374244652575300E-014, 38.09999999999999400, 5.722260062541881400 ) ) ;
#173 = APPROVAL_PERSON_ORGANIZATION ( #123, #134, #192 ) ;
#174 = DIRECTION ( 'NONE',  ( 1.000000000000000000, 0.0000000000000000000, -2.276539994720219300E-017 ) ) ;
#175 = CC_DESIGN_DATE_AND_TIME_ASSIGNMENT ( #111, #142, ( #80 ) ) ;
#176 = CARTESIAN_POINT ( 'NONE',  ( -36.59049015368383800, 38.54332662959534200, 11.38838601964095600 ) ) ;
#177 = CARTESIAN_POINT ( 'NONE',  ( -9.325873406851310200E-015, -1.776356839400250100E-015, 5.722260062541880500 ) ) ;
#178 = EDGE_LOOP ( 'NONE', ( #64, #149, #184 ) ) ;
#179 = DIRECTION ( 'NONE',  ( 2.331176954593499900E-017, 1.086877198725570000E-033, 1.000000000000000000 ) ) ;
#180 = DIRECTION ( 'NONE',  ( -2.331176954593499900E-017, -1.086877198725570000E-033, -1.000000000000000000 ) ) ;
#181 = EDGE_CURVE ( 'NONE', #72, #171, #135, .T. ) ;
#182 = ORIENTED_EDGE ( 'NONE', *, *, #74, .F. ) ;
#183 = CC_DESIGN_PERSON_AND_ORGANIZATION_ASSIGNMENT ( #94, #114, ( #231 ) ) ;
#184 = ORIENTED_EDGE ( 'NONE', *, *, #49, .T. ) ;
#185 = ORIENTED_EDGE ( 'NONE', *, *, #227, .F. ) ;
#186 = CC_DESIGN_APPROVAL ( #211, ( #231 ) ) ;
#187 = PERSON_AND_ORGANIZATION_ROLE ( 'creator' ) ;
#188 = APPROVAL_PERSON_ORGANIZATION ( #3, #151, #106 ) ;
#189 =( BOUNDED_SURFACE ( )  B_SPLINE_SURFACE ( 3, 3, ( 
 ( #66, #229, #158, #159 ),
 ( #137, #87, #233, #196 ),
 ( #33, #50, #118, #89 ),
 ( #176, #13, #68, #140 ) ),
 .UNSPECIFIED., .F., .F., .F. ) 
 B_SPLINE_SURFACE_WITH_KNOTS ( ( 4, 4 ),
 ( 4, 4 ),
 ( 0.0000000000000000000, 1.000000000000000000 ),
 ( 0.0000000000000000000, 1.000000000000000000 ),
 .UNSPECIFIED. ) 
 GEOMETRIC_REPRESENTATION_ITEM ( )  RATIONAL_B_SPLINE_SURFACE ( (
 ( 1.000000000000000000, 0.9925169647289259200, 0.9925169647289259200, 1.000000000000000000),
 ( 0.9698824535934174000, 0.9626247889843819700, 0.9626247889843819700, 0.9698824535934174000),
 ( 0.9698824535934174000, 0.9626247889843819700, 0.9626247889843819700, 0.9698824535934174000),
 ( 1.000000000000000000, 0.9925169647289259200, 0.9925169647289259200, 1.000000000000000000) ) ) 
 REPRESENTATION_ITEM ( '' )  SURFACE ( )  );
#190 = ORIENTED_EDGE ( 'NONE', *, *, #227, .T. ) ;
#191 = CARTESIAN_POINT ( 'NONE',  ( 24.71707695552087700, -38.54332662959533500, 7.716269698160233200 ) ) ;
#192 = APPROVAL_ROLE ( '' ) ;
#193 = CARTESIAN_POINT ( 'NONE',  ( 26.28845979300626100, 13.24673468995899000, -0.03881965134887528000 ) ) ;
#194 = ADVANCED_FACE ( 'NONE', ( #163 ), #88, .T. ) ;
#195 = PERSON_AND_ORGANIZATION_ROLE ( 'creator' ) ;
#196 = CARTESIAN_POINT ( 'NONE',  ( -7.632783294297950000E-014, -13.24673468995897500, -2.013772779609060800 ) ) ;
#197 = DATE_AND_TIME ( #206, #78 ) ;
#198 = DIRECTION ( 'NONE',  ( 1.000000000000000000, 1.014630051716460000E-031, -2.264349047295540000E-016 ) ) ;
#199 = ORIENTED_EDGE ( 'NONE', *, *, #37, .F. ) ;
#200 = DIRECTION ( 'NONE',  ( 1.000000000000000000, 0.0000000000000000000, -2.276539994720219300E-017 ) ) ;
#201 = UNCERTAINTY_MEASURE_WITH_UNIT (LENGTH_MEASURE( 1.000000000000000100E-005 ), #203, 'distance_accuracy_value', 'NONE');
#202 =( GEOMETRIC_REPRESENTATION_CONTEXT ( 3 ) GLOBAL_UNCERTAINTY_ASSIGNED_CONTEXT ( ( #201 ) ) GLOBAL_UNIT_ASSIGNED_CONTEXT ( ( #203, #17, #38 ) ) REPRESENTATION_CONTEXT ( 'NONE', 'WORKASPACE' ) );
#203 =( LENGTH_UNIT ( ) NAMED_UNIT ( * ) SI_UNIT ( .MILLI., .METRE. ) );
#204 = CLOSED_SHELL ( 'NONE', ( #46, #113, #112, #194, #138 ) ) ;
#205 = CARTESIAN_POINT ( 'NONE',  ( -38.10000000000000900, 2.889547465351166000E-015, 12.70000000000000100 ) ) ;
#206 = CALENDAR_DATE ( 2018, 21, 12 ) ;
#207 = DESIGN_CONTEXT ( 'detailed design', #54, 'design' ) ;
#208 = AXIS2_PLACEMENT_3D ( 'NONE', #126, #180, #200 ) ;
#209 = SECURITY_CLASSIFICATION_LEVEL ( 'unclassified' ) ;
#210 = CARTESIAN_POINT ( 'NONE',  ( 13.21841529742687600, -13.24673468995897000, -2.013772779609073600 ) ) ;
#211 = APPROVAL ( #12, 'UNSPECIFIED' ) ;
#212 = PERSON_AND_ORGANIZATION ( #108, #32 ) ;
#213 = CIRCLE ( 'NONE', #208, 38.10000000000000100 ) ;
#214 = CARTESIAN_POINT ( 'NONE',  ( -38.10000000000000900, 2.889547465351166000E-015, 5.722260062541881400 ) ) ;
#215 = MECHANICAL_CONTEXT ( 'NONE', #34, 'mechanical' ) ;
#216 = APPROVAL_STATUS ( 'not_yet_approved' ) ;
#217 = CARTESIAN_POINT ( 'NONE',  ( -38.10000000000000900, 2.889547465351166000E-015, 5.722260062541880500 ) ) ;
#218 = ADVANCED_BREP_SHAPE_REPRESENTATION ( '110-0711E BK7 pl-cx 76.2 F250', ( #58, #219 ), #202 ) ;
#219 = AXIS2_PLACEMENT_3D ( 'NONE', #1, #91, #75 ) ;
#220 = VECTOR ( 'NONE', #179, 1000.000000000000000 ) ;
#221 = CC_DESIGN_APPROVAL ( #134, ( #77 ) ) ;
#222 = COORDINATED_UNIVERSAL_TIME_OFFSET ( 2, 0, .AHEAD. ) ;
#223 = AXIS2_PLACEMENT_3D ( 'NONE', #102, #230, #121 ) ;
#224 = DIRECTION ( 'NONE',  ( 1.000000000000000000, 0.0000000000000000000, -4.553079989440438700E-017 ) ) ;
#225 = EDGE_LOOP ( 'NONE', ( #96, #131, #107 ) ) ;
#226 = DIRECTION ( 'NONE',  ( -2.331176954593499900E-017, -1.086877198725570000E-033, -1.000000000000000000 ) ) ;
#227 = EDGE_CURVE ( 'NONE', #103, #124, #153, .T. ) ;
#228 = DIRECTION ( 'NONE',  ( -2.331176954593499900E-017, -1.086877198725570000E-033, -1.000000000000000000 ) ) ;
#229 = CARTESIAN_POINT ( 'NONE',  ( -24.71707695552091600, -38.54332662959534200, 7.716269698160249200 ) ) ;
#230 = DIRECTION ( 'NONE',  ( 2.331176954593499900E-017, 1.086877198725570000E-033, 1.000000000000000000 ) ) ;
#231 = PRODUCT_DEFINITION_FORMATION_WITH_SPECIFIED_SOURCE ( 'ANY', '', #125, .NOT_KNOWN. ) ;
#232 = ORIENTED_EDGE ( 'NONE', *, *, #181, .T. ) ;
#233 = CARTESIAN_POINT ( 'NONE',  ( -13.21841529742695300, -13.24673468995897200, -2.013772779609055000 ) ) ;
#234 = CARTESIAN_POINT ( 'NONE',  ( -9.325873406851310200E-015, -1.776356839400250100E-015, 5.722260062541879600 ) ) ;
#235 = CC_DESIGN_SECURITY_CLASSIFICATION ( #77, ( #231 ) ) ;
ENDSEC;
END-ISO-10303-21;
