ISO-10303-21;
HEADER;
FILE_DESCRIPTION (( 'STEP AP203' ),
    '1' );
FILE_NAME ('110-0565E BK7 pl-cx 50.8 F10000.STEP',
    '2018-12-21T07:00:28',
    ( '' ),
    ( '' ),
    'SwSTEP 2.0',
    'SolidWorks 2017',
    '' );
FILE_SCHEMA (( 'CONFIG_CONTROL_DESIGN' ));
ENDSEC;

DATA;
#1 = ORIENTED_EDGE ( 'NONE', *, *, #125, .F. ) ;
#2 = PRODUCT_DEFINITION_FORMATION_WITH_SPECIFIED_SOURCE ( 'ANY', '', #144, .NOT_KNOWN. ) ;
#3 = LOCAL_TIME ( 9, 0, 28.00000000000000000, #220 ) ;
#4 = CC_DESIGN_DATE_AND_TIME_ASSIGNMENT ( #143, #117, ( #9 ) ) ;
#5 = APPLICATION_PROTOCOL_DEFINITION ( 'international standard', 'config_control_design', 1994, #135 ) ;
#6 = APPROVAL_DATE_TIME ( #76, #184 ) ;
#7 = APPLICATION_CONTEXT ( 'configuration controlled 3d designs of mechanical parts and assemblies' ) ;
#8 = CARTESIAN_POINT ( 'NONE',  ( -8.517544182922693000, 8.568335981185336800, -0.02123083610037605100 ) ) ;
#9 = SECURITY_CLASSIFICATION ( '', '', #223 ) ;
#10 = FACE_OUTER_BOUND ( 'NONE', #185, .T. ) ;
#11 = CARTESIAN_POINT ( 'NONE',  ( -25.55250335901976700, -8.568335981184949500, 0.04170840785122802800 ) ) ;
#12 = DATE_AND_TIME ( #96, #178 ) ;
#13 = CARTESIAN_POINT ( 'NONE',  ( -17.03478362682597700, -25.70479751967125300, 0.08467143383689133800 ) ) ;
#14 = ORIENTED_EDGE ( 'NONE', *, *, #190, .T. ) ;
#15 = APPROVAL_DATE_TIME ( #58, #18 ) ;
#16 = AXIS2_PLACEMENT_3D ( 'NONE', #137, #192, #158 ) ;
#17 = EDGE_LOOP ( 'NONE', ( #83, #139 ) ) ;
#18 = APPROVAL ( #75, 'UNSPECIFIED' ) ;
#19 = DIRECTION ( 'NONE',  ( 1.000000000000000000, 0.0000000000000000000, 0.0000000000000000000 ) ) ;
#20 = CARTESIAN_POINT ( 'NONE',  ( 8.517544182921076500, -8.568335981184963800, -0.02123083610069949300 ) ) ;
#21 = CARTESIAN_POINT ( 'NONE',  ( 25.55250335902205400, 8.568335981185322600, 0.04170840785120488700 ) ) ;
#22 = AXIS2_PLACEMENT_3D ( 'NONE', #32, #69, #234 ) ;
#23 = CARTESIAN_POINT ( 'NONE',  ( 25.55208500894720200, 25.70479751967161500, 0.1266302004090142400 ) ) ;
#24 = APPROVAL_PERSON_ORGANIZATION ( #49, #184, #169 ) ;
#25 = VERTEX_POINT ( 'NONE', #79 ) ;
#26 = APPROVAL_STATUS ( 'not_yet_approved' ) ;
#27 = COORDINATED_UNIVERSAL_TIME_OFFSET ( 2, 0, .AHEAD. ) ;
#28 = ADVANCED_FACE ( 'NONE', ( #210 ), #50, .T. ) ;
#29 = VERTEX_POINT ( 'NONE', #120 ) ;
#30 = CC_DESIGN_SECURITY_CLASSIFICATION ( #9, ( #2 ) ) ;
#31 = CARTESIAN_POINT ( 'NONE',  ( 9.992007221626412800E-016, 4.884981308350691100E-015, 5.000000000000000000 ) ) ;
#32 = CARTESIAN_POINT ( 'NONE',  ( 9.992007221626412800E-016, 4.884981308350691100E-015, 0.06219046343298220000 ) ) ;
#33 = AXIS2_PLACEMENT_3D ( 'NONE', #31, #85, #107 ) ;
#34 = CARTESIAN_POINT ( 'NONE',  ( -1.143218217182850600E-012, 25.70479751967162600, 0.06369198690947541800 ) ) ;
#35 = CARTESIAN_POINT ( 'NONE',  ( 9.992007221626412800E-016, 4.884981308350691100E-015, 0.06219046343298220000 ) ) ;
#36 = ADVANCED_FACE ( 'NONE', ( #10 ), #124, .T. ) ;
#37 = PRODUCT_RELATED_PRODUCT_CATEGORY ( 'detail', '', ( #144 ) ) ;
#38 = CIRCLE ( 'NONE', #163, 25.39999999999999900 ) ;
#39 = DIRECTION ( 'NONE',  ( 0.0000000000000000000, 0.0000000000000000000, 1.000000000000000000 ) ) ;
#40 = CARTESIAN_POINT ( 'NONE',  ( -25.55208500894491400, -25.70479751967124600, 0.1266302004090391600 ) ) ;
#41 = CARTESIAN_POINT ( 'NONE',  ( -2.428612866367529900E-012, -25.70479751967125600, 0.06369198690978973600 ) ) ;
#42 = CC_DESIGN_APPROVAL ( #18, ( #9 ) ) ;
#43 = CARTESIAN_POINT ( 'NONE',  ( -2.414735078559715500E-012, 8.568335981185333200, -0.02123083610038076900 ) ) ;
#44 = ORIENTED_EDGE ( 'NONE', *, *, #53, .T. ) ;
#45 = PERSON_AND_ORGANIZATION ( #182, #215 ) ;
#46 = ORIENTED_EDGE ( 'NONE', *, *, #233, .T. ) ;
#47 = PRODUCT_DEFINITION ( 'UNKNOWN', '', #2, #86 ) ;
#48 = CARTESIAN_POINT ( 'NONE',  ( 9.992007221626412800E-016, 4.884981308350691100E-015, 0.06219046343298220000 ) ) ;
#49 = PERSON_AND_ORGANIZATION ( #182, #215 ) ;
#50 = CYLINDRICAL_SURFACE ( 'NONE', #16, 25.39999999999999900 ) ;
#51 = CARTESIAN_POINT ( 'NONE',  ( 17.03478362682629300, -25.70479751967126700, 0.08467143383685450700 ) ) ;
#52 = CARTESIAN_POINT ( 'NONE',  ( 25.55250335902204700, -8.568335981184969100, 0.04170840785120309700 ) ) ;
#53 = EDGE_CURVE ( 'NONE', #189, #25, #38, .T. ) ;
#54 = APPROVAL_ROLE ( '' ) ;
#55 = CARTESIAN_POINT ( 'NONE',  ( 4.547473508864640200E-013, 4.547473508864640200E-013, 5187.000000000000000 ) ) ;
#56 = PERSON_AND_ORGANIZATION_ROLE ( 'creator' ) ;
#57 = LINE ( 'NONE', #90, #153 ) ;
#58 = DATE_AND_TIME ( #66, #131 ) ;
#59 = CARTESIAN_POINT ( 'NONE',  ( 25.39999999999999900, 4.884981308350691100E-015, 0.06219046343298220000 ) ) ;
#60 = AXIS2_PLACEMENT_3D ( 'NONE', #67, #228, #123 ) ;
#61 = CARTESIAN_POINT ( 'NONE',  ( -8.517404732192714400, -25.70479751967125600, 0.06369198690979445400 ) ) ;
#62 = CARTESIAN_POINT ( 'NONE',  ( -2.407796184655808200E-012, 25.70479751967162600, 0.06369198690978973600 ) ) ;
#63 = CARTESIAN_POINT ( 'NONE',  ( -8.517544182922700100, -8.568335981184954900, -0.02123083610037778200 ) ) ;
#64 = CIRCLE ( 'NONE', #22, 25.39999999999999900 ) ;
#65 = EDGE_CURVE ( 'NONE', #29, #25, #130, .T. ) ;
#66 = CALENDAR_DATE ( 2018, 21, 12 ) ;
#67 = CARTESIAN_POINT ( 'NONE',  ( 0.0000000000000000000, 52.02000000000000300, 5.000000000000000000 ) ) ;
#68 = CIRCLE ( 'NONE', #88, 25.39999999999999900 ) ;
#69 = DIRECTION ( 'NONE',  ( -0.0000000000000000000, -0.0000000000000000000, -1.000000000000000000 ) ) ;
#70 = CARTESIAN_POINT ( 'NONE',  ( -1.149388643817757400E-012, 8.568335981185331500, -0.02123083610069506600 ) ) ;
#71 = CARTESIAN_POINT ( 'NONE',  ( 8.517544182921081800, 8.568335981185327900, -0.02123083610069770300 ) ) ;
#72 = PERSON_AND_ORGANIZATION ( #182, #215 ) ;
#73 = ORIENTED_EDGE ( 'NONE', *, *, #92, .T. ) ;
#74 =( NAMED_UNIT ( * ) SI_UNIT ( $, .STERADIAN. ) SOLID_ANGLE_UNIT ( ) );
#75 = APPROVAL_STATUS ( 'not_yet_approved' ) ;
#76 = DATE_AND_TIME ( #121, #3 ) ;
#77 = DIRECTION ( 'NONE',  ( 0.0000000000000000000, 0.0000000000000000000, 1.000000000000000000 ) ) ;
#78 = EDGE_CURVE ( 'NONE', #162, #29, #80, .T. ) ;
#79 = CARTESIAN_POINT ( 'NONE',  ( 25.39999999999999900, 4.884981308350691100E-015, 5.000000000000000000 ) ) ;
#80 = CIRCLE ( 'NONE', #147, 25.39999999999999900 ) ;
#81 = CARTESIAN_POINT ( 'NONE',  ( -25.55250335901975900, 8.568335981185342100, 0.04170840785122980500 ) ) ;
#82 = ADVANCED_BREP_SHAPE_REPRESENTATION ( '110-0565E BK7 pl-cx 50.8 F10000', ( #87, #211 ), #142 ) ;
#83 = ORIENTED_EDGE ( 'NONE', *, *, #92, .F. ) ;
#84 = ORIENTED_EDGE ( 'NONE', *, *, #78, .T. ) ;
#85 = DIRECTION ( 'NONE',  ( -0.0000000000000000000, -0.0000000000000000000, -1.000000000000000000 ) ) ;
#86 = DESIGN_CONTEXT ( 'detailed design', #135, 'design' ) ;
#87 = MANIFOLD_SOLID_BREP ( 'Imported1', #225 ) ;
#88 = AXIS2_PLACEMENT_3D ( 'NONE', #35, #113, #19 ) ;
#89 = ORIENTED_EDGE ( 'NONE', *, *, #173, .F. ) ;
#90 = CARTESIAN_POINT ( 'NONE',  ( -25.39999999999999900, 7.995584178184967200E-015, 0.06219046343298220000 ) ) ;
#91 = DIRECTION ( 'NONE',  ( 1.000000000000000000, 0.0000000000000000000, 0.0000000000000000000 ) ) ;
#92 = EDGE_CURVE ( 'NONE', #25, #189, #122, .T. ) ;
#93 = CARTESIAN_POINT ( 'NONE',  ( 9.992007221626412800E-016, 4.884981308350691100E-015, 0.06219046343298220000 ) ) ;
#94 = ORIENTED_EDGE ( 'NONE', *, *, #173, .T. ) ;
#95 = DATE_TIME_ROLE ( 'creation_date' ) ;
#96 = CALENDAR_DATE ( 2018, 21, 12 ) ;
#97 = APPROVAL_STATUS ( 'not_yet_approved' ) ;
#98 = ADVANCED_FACE ( 'NONE', ( #105 ), #230, .T. ) ;
#99 = DIRECTION ( 'NONE',  ( -0.0000000000000000000, -0.0000000000000000000, -1.000000000000000000 ) ) ;
#100 = APPROVAL ( #97, 'UNSPECIFIED' ) ;
#101 = FACE_OUTER_BOUND ( 'NONE', #168, .T. ) ;
#102 = CARTESIAN_POINT ( 'NONE',  ( -17.03506252786291200, 8.568335981185338600, -0.0002510456884641557300 ) ) ;
#103 = ORIENTED_EDGE ( 'NONE', *, *, #65, .F. ) ;
#104 = CALENDAR_DATE ( 2018, 21, 12 ) ;
#105 = FACE_OUTER_BOUND ( 'NONE', #17, .T. ) ;
#106 = DIRECTION ( 'NONE',  ( -0.0000000000000000000, -0.0000000000000000000, -1.000000000000000000 ) ) ;
#107 = DIRECTION ( 'NONE',  ( 1.000000000000000000, 0.0000000000000000000, 0.0000000000000000000 ) ) ;
#108 = COORDINATED_UNIVERSAL_TIME_OFFSET ( 2, 0, .AHEAD. ) ;
#109 = DIRECTION ( 'NONE',  ( 1.000000000000000000, -8.881784197001252300E-016, 0.0000000000000000000 ) ) ;
#110 = PRODUCT_DEFINITION_SHAPE ( 'NONE', 'NONE',  #47 ) ;
#111 = CARTESIAN_POINT ( 'NONE',  ( 17.03506252786325300, -8.568335981184965500, -0.0002510456885027533800 ) ) ;
#112 = APPROVAL_PERSON_ORGANIZATION ( #214, #18, #191 ) ;
#113 = DIRECTION ( 'NONE',  ( -0.0000000000000000000, -0.0000000000000000000, -1.000000000000000000 ) ) ;
#114 = CC_DESIGN_APPROVAL ( #100, ( #47 ) ) ;
#115 = CARTESIAN_POINT ( 'NONE',  ( 9.992007221626412800E-016, 4.884981308350691100E-015, 0.06219046343298220000 ) ) ;
#116 = CARTESIAN_POINT ( 'NONE',  ( 25.55208500894718100, -25.70479751967126700, 0.1266302004090142400 ) ) ;
#117 = DATE_TIME_ROLE ( 'classification_date' ) ;
#118 = CIRCLE ( 'NONE', #155, 25.39999999999999900 ) ;
#119 = CARTESIAN_POINT ( 'NONE',  ( 0.0000000000000000000, 0.0000000000000000000, 0.0000000000000000000 ) ) ;
#120 = CARTESIAN_POINT ( 'NONE',  ( 25.39999999999999900, 4.884981308350691100E-015, 0.06219046343298220000 ) ) ;
#121 = CALENDAR_DATE ( 2018, 21, 12 ) ;
#122 = CIRCLE ( 'NONE', #33, 25.39999999999999900 ) ;
#123 = DIRECTION ( 'NONE',  ( 1.000000000000000000, 0.0000000000000000000, -0.0000000000000000000 ) ) ;
#124 =( BOUNDED_SURFACE ( )  B_SPLINE_SURFACE ( 3, 3, ( 
 ( #40, #13, #61, #41 ),
 ( #11, #176, #63, #194 ),
 ( #81, #102, #8, #43 ),
 ( #224, #175, #174, #62 ) ),
 .UNSPECIFIED., .F., .F., .T. ) 
 B_SPLINE_SURFACE_WITH_KNOTS ( ( 4, 4 ),
 ( 4, 4 ),
 ( 0.0000000000000000000, 1.000000000000000000 ),
 ( 0.0000000000000000000, 1.000000000000000000 ),
 .UNSPECIFIED. ) 
 GEOMETRIC_REPRESENTATION_ITEM ( )  RATIONAL_B_SPLINE_SURFACE ( (
 ( 1.000000000000000000, 0.9999979776659019300, 0.9999979776659019300, 1.000000000000000000),
 ( 0.9999918138953911600, 0.9999897915778481700, 0.9999897915778481700, 0.9999918138953911600),
 ( 0.9999918138953911600, 0.9999897915778481700, 0.9999897915778481700, 0.9999918138953911600),
 ( 1.000000000000000000, 0.9999979776659019300, 0.9999979776659019300, 1.000000000000000000) ) ) 
 REPRESENTATION_ITEM ( '' )  SURFACE ( )  );
#125 = EDGE_CURVE ( 'NONE', #29, #179, #118, .T. ) ;
#126 = CARTESIAN_POINT ( 'NONE',  ( 8.517404732191076600, -25.70479751967126300, 0.06369198690947276700 ) ) ;
#127 = DIRECTION ( 'NONE',  ( 0.0000000000000000000, 0.0000000000000000000, 1.000000000000000000 ) ) ;
#128 = CARTESIAN_POINT ( 'NONE',  ( 17.03478362682631100, 25.70479751967162600, 0.08467143383685450700 ) ) ;
#129 = AXIS2_PLACEMENT_3D ( 'NONE', #115, #148, #164 ) ;
#130 = LINE ( 'NONE', #59, #213 ) ;
#131 = LOCAL_TIME ( 9, 0, 28.00000000000000000, #27 ) ;
#132 = PERSON_AND_ORGANIZATION_ROLE ( 'creator' ) ;
#133 =( NAMED_UNIT ( * ) PLANE_ANGLE_UNIT ( ) SI_UNIT ( $, .RADIAN. ) );
#134 = SHAPE_DEFINITION_REPRESENTATION ( #110, #82 ) ;
#135 = APPLICATION_CONTEXT ( 'configuration controlled 3d designs of mechanical parts and assemblies' ) ;
#136 = CC_DESIGN_PERSON_AND_ORGANIZATION_ASSIGNMENT ( #72, #156, ( #144 ) ) ;
#137 = CARTESIAN_POINT ( 'NONE',  ( 9.992007221626412800E-016, 4.884981308350691100E-015, 0.06219046343298220000 ) ) ;
#138 =( BOUNDED_SURFACE ( )  B_SPLINE_SURFACE ( 3, 3, ( 
 ( #235, #126, #51, #116 ),
 ( #166, #20, #111, #52 ),
 ( #70, #71, #146, #21 ),
 ( #34, #145, #128, #23 ) ),
 .UNSPECIFIED., .F., .F., .F. ) 
 B_SPLINE_SURFACE_WITH_KNOTS ( ( 4, 4 ),
 ( 4, 4 ),
 ( 0.0000000000000000000, 1.000000000000000000 ),
 ( 0.0000000000000000000, 1.000000000000000000 ),
 .UNSPECIFIED. ) 
 GEOMETRIC_REPRESENTATION_ITEM ( )  RATIONAL_B_SPLINE_SURFACE ( (
 ( 1.000000000000000000, 0.9999979776659019300, 0.9999979776659019300, 1.000000000000000000),
 ( 0.9999918138953911600, 0.9999897915778481700, 0.9999897915778481700, 0.9999918138953911600),
 ( 0.9999918138953911600, 0.9999897915778481700, 0.9999897915778481700, 0.9999918138953911600),
 ( 1.000000000000000000, 0.9999979776659019300, 0.9999979776659019300, 1.000000000000000000) ) ) 
 REPRESENTATION_ITEM ( '' )  SURFACE ( )  );
#139 = ORIENTED_EDGE ( 'NONE', *, *, #53, .F. ) ;
#140 = UNCERTAINTY_MEASURE_WITH_UNIT (LENGTH_MEASURE( 1.000000000000000100E-005 ), #221, 'distance_accuracy_value', 'NONE');
#141 = ORIENTED_EDGE ( 'NONE', *, *, #159, .T. ) ;
#142 =( GEOMETRIC_REPRESENTATION_CONTEXT ( 3 ) GLOBAL_UNCERTAINTY_ASSIGNED_CONTEXT ( ( #140 ) ) GLOBAL_UNIT_ASSIGNED_CONTEXT ( ( #221, #133, #74 ) ) REPRESENTATION_CONTEXT ( 'NONE', 'WORKASPACE' ) );
#143 = DATE_AND_TIME ( #104, #167 ) ;
#144 = PRODUCT ( '110-0565E BK7 pl-cx 50.8 F10000', '110-0565E BK7 pl-cx 50.8 F10000', '', ( #187 ) ) ;
#145 = CARTESIAN_POINT ( 'NONE',  ( 8.517404732191096200, 25.70479751967162900, 0.06369198690947276700 ) ) ;
#146 = CARTESIAN_POINT ( 'NONE',  ( 17.03506252786326100, 8.568335981185326100, -0.0002510456885009643400 ) ) ;
#147 = AXIS2_PLACEMENT_3D ( 'NONE', #48, #106, #109 ) ;
#148 = DIRECTION ( 'NONE',  ( 0.0000000000000000000, 0.0000000000000000000, 1.000000000000000000 ) ) ;
#149 = ORIENTED_EDGE ( 'NONE', *, *, #125, .T. ) ;
#150 = PERSON_AND_ORGANIZATION ( #182, #215 ) ;
#151 = DIRECTION ( 'NONE',  ( -3.585403630655970900E-016, -1.000000000000000000, -3.424632426065645600E-016 ) ) ;
#152 = DIRECTION ( 'NONE',  ( 1.000000000000000000, 0.0000000000000000000, 0.0000000000000000000 ) ) ;
#153 = VECTOR ( 'NONE', #127, 1000.000000000000000 ) ;
#154 = PERSON_AND_ORGANIZATION_ROLE ( 'design_supplier' ) ;
#155 = AXIS2_PLACEMENT_3D ( 'NONE', #93, #202, #91 ) ;
#156 = PERSON_AND_ORGANIZATION_ROLE ( 'design_owner' ) ;
#157 = PERSON_AND_ORGANIZATION ( #182, #215 ) ;
#158 = DIRECTION ( 'NONE',  ( 1.000000000000000000, 0.0000000000000000000, 0.0000000000000000000 ) ) ;
#159 = EDGE_CURVE ( 'NONE', #179, #218, #68, .T. ) ;
#160 = ORIENTED_EDGE ( 'NONE', *, *, #159, .F. ) ;
#161 = DATE_AND_TIME ( #188, #231 ) ;
#162 = VERTEX_POINT ( 'NONE', #165 ) ;
#163 = AXIS2_PLACEMENT_3D ( 'NONE', #172, #99, #209 ) ;
#164 = DIRECTION ( 'NONE',  ( 1.000000000000000000, 0.0000000000000000000, 0.0000000000000000000 ) ) ;
#165 = CARTESIAN_POINT ( 'NONE',  ( -1.143327964646027400E-012, 25.40000000001257900, 0.06219046343311797300 ) ) ;
#166 = CARTESIAN_POINT ( 'NONE',  ( -1.155532832404881500E-012, -8.568335981184960200, -0.02123083610069685700 ) ) ;
#167 = LOCAL_TIME ( 9, 0, 28.00000000000000000, #217 ) ;
#168 = EDGE_LOOP ( 'NONE', ( #149, #46, #84 ) ) ;
#169 = APPROVAL_ROLE ( '' ) ;
#170 = APPROVAL_DATE_TIME ( #12, #100 ) ;
#171 = APPLICATION_PROTOCOL_DEFINITION ( 'international standard', 'config_control_design', 1994, #7 ) ;
#172 = CARTESIAN_POINT ( 'NONE',  ( 9.992007221626412800E-016, 4.884981308350691100E-015, 5.000000000000000000 ) ) ;
#173 = EDGE_CURVE ( 'NONE', #218, #189, #57, .T. ) ;
#174 = CARTESIAN_POINT ( 'NONE',  ( -8.517404732192693100, 25.70479751967163300, 0.06369198690979445400 ) ) ;
#175 = CARTESIAN_POINT ( 'NONE',  ( -17.03478362682595600, 25.70479751967163700, 0.08467143383689133800 ) ) ;
#176 = CARTESIAN_POINT ( 'NONE',  ( -17.03506252786292000, -8.568335981184953100, -0.0002510456884659311600 ) ) ;
#177 = ORIENTED_EDGE ( 'NONE', *, *, #65, .T. ) ;
#178 = LOCAL_TIME ( 9, 0, 28.00000000000000000, #108 ) ;
#179 = VERTEX_POINT ( 'NONE', #216 ) ;
#180 = PERSON_AND_ORGANIZATION ( #182, #215 ) ;
#181 = ORIENTED_EDGE ( 'NONE', *, *, #190, .F. ) ;
#182 = PERSON ( 'UNSPECIFIED', 'UNSPECIFIED', 'UNSPECIFIED', ('UNSPECIFIED'), ('UNSPECIFIED'), ('UNSPECIFIED') ) ;
#183 = CARTESIAN_POINT ( 'NONE',  ( -25.39999999999999900, 7.995584178184967200E-015, 5.000000000000000000 ) ) ;
#184 = APPROVAL ( #26, 'UNSPECIFIED' ) ;
#185 = EDGE_LOOP ( 'NONE', ( #229, #141, #14 ) ) ;
#186 = ADVANCED_FACE ( 'NONE', ( #101 ), #138, .T. ) ;
#187 = MECHANICAL_CONTEXT ( 'NONE', #7, 'mechanical' ) ;
#188 = CALENDAR_DATE ( 2018, 21, 12 ) ;
#189 = VERTEX_POINT ( 'NONE', #183 ) ;
#190 = EDGE_CURVE ( 'NONE', #218, #162, #64, .T. ) ;
#191 = APPROVAL_ROLE ( '' ) ;
#192 = DIRECTION ( 'NONE',  ( 0.0000000000000000000, 0.0000000000000000000, 1.000000000000000000 ) ) ;
#193 = CC_DESIGN_PERSON_AND_ORGANIZATION_ASSIGNMENT ( #45, #132, ( #47 ) ) ;
#194 = CARTESIAN_POINT ( 'NONE',  ( -2.421673972463622700E-012, -8.568335981184958400, -0.02123083610038250400 ) ) ;
#195 = PERSON_AND_ORGANIZATION ( #182, #215 ) ;
#196 = CC_DESIGN_APPROVAL ( #184, ( #2 ) ) ;
#197 = CC_DESIGN_PERSON_AND_ORGANIZATION_ASSIGNMENT ( #195, #56, ( #2 ) ) ;
#198 = FACE_OUTER_BOUND ( 'NONE', #200, .T. ) ;
#199 = COORDINATED_UNIVERSAL_TIME_OFFSET ( 2, 0, .AHEAD. ) ;
#200 = EDGE_LOOP ( 'NONE', ( #181, #94, #44, #103, #232 ) ) ;
#201 = CARTESIAN_POINT ( 'NONE',  ( -25.39999999999999900, 7.995584178184967200E-015, 0.06219046343298220000 ) ) ;
#202 = DIRECTION ( 'NONE',  ( -0.0000000000000000000, -0.0000000000000000000, -1.000000000000000000 ) ) ;
#203 = CIRCLE ( 'NONE', #212, 5187.000000000000000 ) ;
#204 = DIRECTION ( 'NONE',  ( 1.000000000000000000, -3.585403630655969900E-016, -3.098518431818169800E-016 ) ) ;
#205 = CC_DESIGN_PERSON_AND_ORGANIZATION_ASSIGNMENT ( #150, #219, ( #9 ) ) ;
#206 = EDGE_LOOP ( 'NONE', ( #89, #160, #1, #177, #73 ) ) ;
#207 = ADVANCED_FACE ( 'NONE', ( #198 ), #226, .T. ) ;
#208 = APPROVAL_PERSON_ORGANIZATION ( #157, #100, #54 ) ;
#209 = DIRECTION ( 'NONE',  ( 1.000000000000000000, 0.0000000000000000000, 0.0000000000000000000 ) ) ;
#210 = FACE_OUTER_BOUND ( 'NONE', #206, .T. ) ;
#211 = AXIS2_PLACEMENT_3D ( 'NONE', #119, #39, #152 ) ;
#212 = AXIS2_PLACEMENT_3D ( 'NONE', #55, #204, #151 ) ;
#213 = VECTOR ( 'NONE', #77, 1000.000000000000000 ) ;
#214 = PERSON_AND_ORGANIZATION ( #182, #215 ) ;
#215 = ORGANIZATION ( 'UNSPECIFIED', 'UNSPECIFIED', '' ) ;
#216 = CARTESIAN_POINT ( 'NONE',  ( -1.161541815089768400E-012, -25.40000000001212000, 0.06219046343311797300 ) ) ;
#217 = COORDINATED_UNIVERSAL_TIME_OFFSET ( 2, 0, .AHEAD. ) ;
#218 = VERTEX_POINT ( 'NONE', #201 ) ;
#219 = PERSON_AND_ORGANIZATION_ROLE ( 'classification_officer' ) ;
#220 = COORDINATED_UNIVERSAL_TIME_OFFSET ( 2, 0, .AHEAD. ) ;
#221 =( LENGTH_UNIT ( ) NAMED_UNIT ( * ) SI_UNIT ( .MILLI., .METRE. ) );
#222 = CC_DESIGN_DATE_AND_TIME_ASSIGNMENT ( #161, #95, ( #47 ) ) ;
#223 = SECURITY_CLASSIFICATION_LEVEL ( 'unclassified' ) ;
#224 = CARTESIAN_POINT ( 'NONE',  ( -25.55208500894489300, 25.70479751967163700, 0.1266302004090391600 ) ) ;
#225 = CLOSED_SHELL ( 'NONE', ( #186, #207, #36, #28, #98 ) ) ;
#226 = CYLINDRICAL_SURFACE ( 'NONE', #129, 25.39999999999999900 ) ;
#227 = CC_DESIGN_PERSON_AND_ORGANIZATION_ASSIGNMENT ( #180, #154, ( #2 ) ) ;
#228 = DIRECTION ( 'NONE',  ( 0.0000000000000000000, 0.0000000000000000000, 1.000000000000000000 ) ) ;
#229 = ORIENTED_EDGE ( 'NONE', *, *, #233, .F. ) ;
#230 = PLANE ( 'NONE',  #60 ) ;
#231 = LOCAL_TIME ( 9, 0, 28.00000000000000000, #199 ) ;
#232 = ORIENTED_EDGE ( 'NONE', *, *, #78, .F. ) ;
#233 = EDGE_CURVE ( 'NONE', #179, #162, #203, .T. ) ;
#234 = DIRECTION ( 'NONE',  ( 1.000000000000000000, 0.0000000000000000000, 0.0000000000000000000 ) ) ;
#235 = CARTESIAN_POINT ( 'NONE',  ( -1.161650632053311900E-012, -25.70479751967125600, 0.06369198690947541800 ) ) ;
ENDSEC;
END-ISO-10303-21;
