ISO-10303-21;
HEADER;
FILE_DESCRIPTION (( 'STEP AP203' ),
    '1' );
FILE_NAME ('110-0555E BK7 pl-cx 50.8 F5000.STEP',
    '2018-12-21T07:00:39',
    ( '' ),
    ( '' ),
    'SwSTEP 2.0',
    'SolidWorks 2017',
    '' );
FILE_SCHEMA (( 'CONFIG_CONTROL_DESIGN' ));
ENDSEC;

DATA;
#1 = DIRECTION ( 'NONE',  ( 1.000000000000000000, 0.0000000000000000000, 0.0000000000000000000 ) ) ;
#2 = DIRECTION ( 'NONE',  ( 1.000000000000000000, 0.0000000000000000000, 0.0000000000000000000 ) ) ;
#3 = COORDINATED_UNIVERSAL_TIME_OFFSET ( 2, 0, .AHEAD. ) ;
#4 = CYLINDRICAL_SURFACE ( 'NONE', #48, 25.39999999999999900 ) ;
#5 = DATE_TIME_ROLE ( 'creation_date' ) ;
#6 = LOCAL_TIME ( 9, 0, 39.00000000000000000, #21 ) ;
#7 = ORIENTED_EDGE ( 'NONE', *, *, #39, .T. ) ;
#8 = CALENDAR_DATE ( 2018, 21, 12 ) ;
#9 =( GEOMETRIC_REPRESENTATION_CONTEXT ( 3 ) GLOBAL_UNCERTAINTY_ASSIGNED_CONTEXT ( ( #143 ) ) GLOBAL_UNIT_ASSIGNED_CONTEXT ( ( #73, #17, #174 ) ) REPRESENTATION_CONTEXT ( 'NONE', 'WORKASPACE' ) );
#10 = VERTEX_POINT ( 'NONE', #13 ) ;
#11 = CARTESIAN_POINT ( 'NONE',  ( -9.853229343548264300E-013, 8.568543829558590700, -0.04245528674341558800 ) ) ;
#12 = AXIS2_PLACEMENT_3D ( 'NONE', #32, #87, #230 ) ;
#13 = CARTESIAN_POINT ( 'NONE',  ( -25.39999999999999900, 7.995584178184967200E-015, 0.1243591875881930200 ) ) ;
#14 = CARTESIAN_POINT ( 'NONE',  ( 25.39999999999999900, 4.884981308350691100E-015, 5.000000000000000000 ) ) ;
#15 = CARTESIAN_POINT ( 'NONE',  ( 0.0000000000000000000, 0.0000000000000000000, 0.0000000000000000000 ) ) ;
#16 = EDGE_CURVE ( 'NONE', #10, #111, #199, .T. ) ;
#17 =( NAMED_UNIT ( * ) PLANE_ANGLE_UNIT ( ) SI_UNIT ( $, .RADIAN. ) );
#18 = DIRECTION ( 'NONE',  ( -0.0000000000000000000, -0.0000000000000000000, -1.000000000000000000 ) ) ;
#19 = PERSON_AND_ORGANIZATION_ROLE ( 'classification_officer' ) ;
#20 = APPROVAL_ROLE ( '' ) ;
#21 = COORDINATED_UNIVERSAL_TIME_OFFSET ( 2, 0, .AHEAD. ) ;
#22 = LOCAL_TIME ( 9, 0, 39.00000000000000000, #216 ) ;
#23 = PERSON_AND_ORGANIZATION_ROLE ( 'design_supplier' ) ;
#24 = PERSON_AND_ORGANIZATION ( #214, #198 ) ;
#25 = APPROVAL ( #175, 'UNSPECIFIED' ) ;
#26 = DESIGN_CONTEXT ( 'detailed design', #119, 'design' ) ;
#27 = APPROVAL ( #140, 'UNSPECIFIED' ) ;
#28 = AXIS2_PLACEMENT_3D ( 'NONE', #94, #18, #2 ) ;
#29 = CIRCLE ( 'NONE', #159, 25.39999999999999900 ) ;
#30 = CARTESIAN_POINT ( 'NONE',  ( -8.517219016301465800, 25.70479008217317900, 0.1273616912432503100 ) ) ;
#31 = DIRECTION ( 'NONE',  ( 0.0000000000000000000, 0.0000000000000000000, 1.000000000000000000 ) ) ;
#32 = CARTESIAN_POINT ( 'NONE',  ( 0.0000000000000000000, 52.02000000000000300, 5.000000000000000000 ) ) ;
#33 = CARTESIAN_POINT ( 'NONE',  ( 9.992007221626412800E-016, 4.884981308350691100E-015, 0.1243591875881930200 ) ) ;
#34 = PRODUCT_DEFINITION_FORMATION_WITH_SPECIFIED_SOURCE ( 'ANY', '', #227, .NOT_KNOWN. ) ;
#35 = DIRECTION ( 'NONE',  ( -3.584712535121920700E-016, -1.000000000000000000, -3.423972319584137200E-016 ) ) ;
#36 = ORIENTED_EDGE ( 'NONE', *, *, #70, .T. ) ;
#37 = MANIFOLD_SOLID_BREP ( 'Imported1', #161 ) ;
#38 = CARTESIAN_POINT ( 'NONE',  ( 25.55281329423391100, 8.568543829558580100, 0.08340273577292939300 ) ) ;
#39 = EDGE_CURVE ( 'NONE', #209, #61, #152, .T. ) ;
#40 = APPLICATION_CONTEXT ( 'configuration controlled 3d designs of mechanical parts and assemblies' ) ;
#41 = APPROVAL_ROLE ( '' ) ;
#42 = PERSON_AND_ORGANIZATION ( #214, #198 ) ;
#43 = CC_DESIGN_PERSON_AND_ORGANIZATION_ASSIGNMENT ( #103, #98, ( #229 ) ) ;
#44 = APPLICATION_PROTOCOL_DEFINITION ( 'international standard', 'config_control_design', 1994, #119 ) ;
#45 = CIRCLE ( 'NONE', #58, 25.39999999999999900 ) ;
#46 = ADVANCED_FACE ( 'NONE', ( #181 ), #186, .T. ) ;
#47 = ADVANCED_FACE ( 'NONE', ( #148 ), #215, .T. ) ;
#48 = AXIS2_PLACEMENT_3D ( 'NONE', #93, #172, #1 ) ;
#49 = CARTESIAN_POINT ( 'NONE',  ( -8.517776625943851000, -8.568543829558393600, -0.04245528674341261100 ) ) ;
#50 = CARTESIAN_POINT ( 'NONE',  ( -8.517219016301487100, -25.70479008217298400, 0.1273616912432503100 ) ) ;
#51 = APPROVAL_DATE_TIME ( #164, #92 ) ;
#52 = ORIENTED_EDGE ( 'NONE', *, *, #167, .F. ) ;
#53 = CARTESIAN_POINT ( 'NONE',  ( -25.55281329423407800, -8.568543829558391800, 0.08340273577289295000 ) ) ;
#54 = CC_DESIGN_PERSON_AND_ORGANIZATION_ASSIGNMENT ( #24, #19, ( #224 ) ) ;
#55 = APPROVAL_DATE_TIME ( #122, #27 ) ;
#56 = ORIENTED_EDGE ( 'NONE', *, *, #178, .F. ) ;
#57 = DIRECTION ( 'NONE',  ( 1.000000000000000000, 0.0000000000000000000, 0.0000000000000000000 ) ) ;
#58 = AXIS2_PLACEMENT_3D ( 'NONE', #171, #190, #221 ) ;
#59 = CARTESIAN_POINT ( 'NONE',  ( 9.992007221626412800E-016, 4.884981308350691100E-015, 0.1243591875881930200 ) ) ;
#60 = APPROVAL_STATUS ( 'not_yet_approved' ) ;
#61 = VERTEX_POINT ( 'NONE', #149 ) ;
#62 = EDGE_CURVE ( 'NONE', #111, #129, #78, .T. ) ;
#63 = DATE_AND_TIME ( #109, #6 ) ;
#64 = ORIENTED_EDGE ( 'NONE', *, *, #70, .F. ) ;
#65 = CC_DESIGN_PERSON_AND_ORGANIZATION_ASSIGNMENT ( #69, #195, ( #34 ) ) ;
#66 = CARTESIAN_POINT ( 'NONE',  ( -8.517776625943840300, 8.568543829558590700, -0.04245528674341083500 ) ) ;
#67 = COORDINATED_UNIVERSAL_TIME_OFFSET ( 2, 0, .AHEAD. ) ;
#68 = CARTESIAN_POINT ( 'NONE',  ( -17.03544993466631800, 8.568543829558592500, -0.0005022733225148112100 ) ) ;
#69 = PERSON_AND_ORGANIZATION ( #214, #198 ) ;
#70 = EDGE_CURVE ( 'NONE', #61, #129, #144, .T. ) ;
#71 = DIRECTION ( 'NONE',  ( 1.000000000000000000, 0.0000000000000000000, 0.0000000000000000000 ) ) ;
#72 = CALENDAR_DATE ( 2018, 21, 12 ) ;
#73 =( LENGTH_UNIT ( ) NAMED_UNIT ( * ) SI_UNIT ( .MILLI., .METRE. ) );
#74 = CARTESIAN_POINT ( 'NONE',  ( -3.457949800714416900E-013, 8.568543829558589000, -0.04245528674349483000 ) ) ;
#75 = CC_DESIGN_PERSON_AND_ORGANIZATION_ASSIGNMENT ( #82, #23, ( #34 ) ) ;
#76 = APPLICATION_PROTOCOL_DEFINITION ( 'international standard', 'config_control_design', 1994, #40 ) ;
#77 = AXIS2_PLACEMENT_3D ( 'NONE', #15, #156, #177 ) ;
#78 = CIRCLE ( 'NONE', #99, 25.39999999999999900 ) ;
#79 = PERSON_AND_ORGANIZATION_ROLE ( 'design_owner' ) ;
#80 = EDGE_LOOP ( 'NONE', ( #133, #123 ) ) ;
#81 = EDGE_CURVE ( 'NONE', #116, #209, #146, .T. ) ;
#82 = PERSON_AND_ORGANIZATION ( #214, #198 ) ;
#83 = EDGE_CURVE ( 'NONE', #129, #111, #100, .T. ) ;
#84 = CYLINDRICAL_SURFACE ( 'NONE', #88, 25.39999999999999900 ) ;
#85 = CARTESIAN_POINT ( 'NONE',  ( -17.03433472214515700, 25.70479008217318300, 0.1693119582426519400 ) ) ;
#86 = PERSON_AND_ORGANIZATION ( #214, #198 ) ;
#87 = DIRECTION ( 'NONE',  ( 0.0000000000000000000, 0.0000000000000000000, 1.000000000000000000 ) ) ;
#88 = AXIS2_PLACEMENT_3D ( 'NONE', #136, #191, #71 ) ;
#89 = CARTESIAN_POINT ( 'NONE',  ( -3.580283770794606300E-013, -25.70479008217298800, 0.1273616912431663200 ) ) ;
#90 = FACE_OUTER_BOUND ( 'NONE', #104, .T. ) ;
#91 = DIRECTION ( 'NONE',  ( 1.000000000000000000, 0.0000000000000000000, 0.0000000000000000000 ) ) ;
#92 = APPROVAL ( #60, 'UNSPECIFIED' ) ;
#93 = CARTESIAN_POINT ( 'NONE',  ( 9.992007221626412800E-016, 4.884981308350691100E-015, 0.1243591875881930200 ) ) ;
#94 = CARTESIAN_POINT ( 'NONE',  ( 9.992007221626412800E-016, 4.884981308350691100E-015, 5.000000000000000000 ) ) ;
#95 = APPROVAL_DATE_TIME ( #202, #25 ) ;
#96 =( BOUNDED_SURFACE ( )  B_SPLINE_SURFACE ( 3, 3, ( 
 ( #89, #208, #235, #117 ),
 ( #112, #233, #154, #193 ),
 ( #74, #170, #219, #38 ),
 ( #131, #114, #207, #115 ) ),
 .UNSPECIFIED., .F., .F., .F. ) 
 B_SPLINE_SURFACE_WITH_KNOTS ( ( 4, 4 ),
 ( 4, 4 ),
 ( 0.0000000000000000000, 1.000000000000000000 ),
 ( 0.0000000000000000000, 1.000000000000000000 ),
 .UNSPECIFIED. ) 
 GEOMETRIC_REPRESENTATION_ITEM ( )  RATIONAL_B_SPLINE_SURFACE ( (
 ( 1.000000000000000000, 0.9999919136002337600, 0.9999919136002337600, 1.000000000000000000),
 ( 0.9999672676198294600, 0.9999591814847503800, 0.9999591814847503800, 0.9999672676198294600),
 ( 0.9999672676198294600, 0.9999591814847503800, 0.9999591814847503800, 0.9999672676198294600),
 ( 1.000000000000000000, 0.9999919136002337600, 0.9999919136002337600, 1.000000000000000000) ) ) 
 REPRESENTATION_ITEM ( '' )  SURFACE ( )  );
#97 = MECHANICAL_CONTEXT ( 'NONE', #40, 'mechanical' ) ;
#98 = PERSON_AND_ORGANIZATION_ROLE ( 'creator' ) ;
#99 = AXIS2_PLACEMENT_3D ( 'NONE', #127, #150, #91 ) ;
#100 = CIRCLE ( 'NONE', #28, 25.39999999999999900 ) ;
#101 = CALENDAR_DATE ( 2018, 21, 12 ) ;
#102 = VECTOR ( 'NONE', #31, 1000.000000000000000 ) ;
#103 = PERSON_AND_ORGANIZATION ( #214, #198 ) ;
#104 = EDGE_LOOP ( 'NONE', ( #197, #234, #7 ) ) ;
#105 = CARTESIAN_POINT ( 'NONE',  ( -25.55281329423406700, 8.568543829558599600, 0.08340273577289474000 ) ) ;
#106 = PRODUCT_RELATED_PRODUCT_CATEGORY ( 'detail', '', ( #227 ) ) ;
#107 = ADVANCED_BREP_SHAPE_REPRESENTATION ( '110-0555E BK7 pl-cx 50.8 F5000', ( #37, #77 ), #9 ) ;
#108 = CARTESIAN_POINT ( 'NONE',  ( 25.39999999999999900, 4.884981308350691100E-015, 0.1243591875881930200 ) ) ;
#109 = CALENDAR_DATE ( 2018, 21, 12 ) ;
#110 = CARTESIAN_POINT ( 'NONE',  ( -17.03433472214517900, -25.70479008217298000, 0.1693119582426519400 ) ) ;
#111 = VERTEX_POINT ( 'NONE', #231 ) ;
#112 = CARTESIAN_POINT ( 'NONE',  ( -3.519381333661537800E-013, -8.568543829558402400, -0.04245528674349662000 ) ) ;
#113 = AXIS2_PLACEMENT_3D ( 'NONE', #59, #151, #57 ) ;
#114 = CARTESIAN_POINT ( 'NONE',  ( 8.517219016300538600, 25.70479008217317200, 0.1273616912431636800 ) ) ;
#115 = CARTESIAN_POINT ( 'NONE',  ( 25.55114049912455700, 25.70479008217316500, 0.2532114745617333200 ) ) ;
#116 = VERTEX_POINT ( 'NONE', #169 ) ;
#117 = CARTESIAN_POINT ( 'NONE',  ( 25.55114049912453600, -25.70479008217299800, 0.2532114745617333200 ) ) ;
#118 = PERSON_AND_ORGANIZATION ( #214, #198 ) ;
#119 = APPLICATION_CONTEXT ( 'configuration controlled 3d designs of mechanical parts and assemblies' ) ;
#120 = CALENDAR_DATE ( 2018, 21, 12 ) ;
#121 = DATE_TIME_ROLE ( 'classification_date' ) ;
#122 = DATE_AND_TIME ( #101, #176 ) ;
#123 = ORIENTED_EDGE ( 'NONE', *, *, #62, .F. ) ;
#124 = AXIS2_PLACEMENT_3D ( 'NONE', #206, #153, #35 ) ;
#125 = SHAPE_DEFINITION_REPRESENTATION ( #226, #107 ) ;
#126 = DIRECTION ( 'NONE',  ( -0.0000000000000000000, -0.0000000000000000000, -1.000000000000000000 ) ) ;
#127 = CARTESIAN_POINT ( 'NONE',  ( 9.992007221626412800E-016, 4.884981308350691100E-015, 5.000000000000000000 ) ) ;
#128 = ORIENTED_EDGE ( 'NONE', *, *, #39, .F. ) ;
#129 = VERTEX_POINT ( 'NONE', #14 ) ;
#130 = CARTESIAN_POINT ( 'NONE',  ( -25.55114049912472000, -25.70479008217297700, 0.2532114745616986800 ) ) ;
#131 = CARTESIAN_POINT ( 'NONE',  ( -3.395995204354119100E-013, 25.70479008217317600, 0.1273616912431663200 ) ) ;
#132 = CARTESIAN_POINT ( 'NONE',  ( -3.397097090701963700E-013, 25.39999999999498200, 0.1243591875881615300 ) ) ;
#133 = ORIENTED_EDGE ( 'NONE', *, *, #83, .F. ) ;
#134 = ORIENTED_EDGE ( 'NONE', *, *, #16, .T. ) ;
#135 = EDGE_CURVE ( 'NONE', #116, #10, #45, .T. ) ;
#136 = CARTESIAN_POINT ( 'NONE',  ( 9.992007221626412800E-016, 4.884981308350691100E-015, 0.1243591875881930200 ) ) ;
#137 = APPROVAL_PERSON_ORGANIZATION ( #118, #92, #210 ) ;
#138 = FACE_OUTER_BOUND ( 'NONE', #180, .T. ) ;
#139 = SECURITY_CLASSIFICATION_LEVEL ( 'unclassified' ) ;
#140 = APPROVAL_STATUS ( 'not_yet_approved' ) ;
#141 = CC_DESIGN_APPROVAL ( #92, ( #224 ) ) ;
#142 = ORIENTED_EDGE ( 'NONE', *, *, #16, .F. ) ;
#143 = UNCERTAINTY_MEASURE_WITH_UNIT (LENGTH_MEASURE( 1.000000000000000100E-005 ), #73, 'distance_accuracy_value', 'NONE');
#144 = LINE ( 'NONE', #108, #102 ) ;
#145 = ADVANCED_FACE ( 'NONE', ( #138 ), #4, .T. ) ;
#146 = CIRCLE ( 'NONE', #124, 2594.000000000000000 ) ;
#147 = CARTESIAN_POINT ( 'NONE',  ( -9.957312752106872700E-013, -8.568543829558400700, -0.04245528674341737800 ) ) ;
#148 = FACE_OUTER_BOUND ( 'NONE', #80, .T. ) ;
#149 = CARTESIAN_POINT ( 'NONE',  ( 25.39999999999999900, 4.884981308350691100E-015, 0.1243591875881930200 ) ) ;
#150 = DIRECTION ( 'NONE',  ( -0.0000000000000000000, -0.0000000000000000000, -1.000000000000000000 ) ) ;
#151 = DIRECTION ( 'NONE',  ( -0.0000000000000000000, -0.0000000000000000000, -1.000000000000000000 ) ) ;
#152 = CIRCLE ( 'NONE', #192, 25.39999999999999900 ) ;
#153 = DIRECTION ( 'NONE',  ( 1.000000000000000000, -3.584712535121920200E-016, -3.097921184626219800E-016 ) ) ;
#154 = CARTESIAN_POINT ( 'NONE',  ( 17.03544993466576300, -8.568543829558404200, -0.0005022733224822988100 ) ) ;
#155 = LOCAL_TIME ( 9, 0, 39.00000000000000000, #67 ) ;
#156 = DIRECTION ( 'NONE',  ( 0.0000000000000000000, 0.0000000000000000000, 1.000000000000000000 ) ) ;
#157 = COORDINATED_UNIVERSAL_TIME_OFFSET ( 2, 0, .AHEAD. ) ;
#158 = ORIENTED_EDGE ( 'NONE', *, *, #135, .T. ) ;
#159 = AXIS2_PLACEMENT_3D ( 'NONE', #33, #194, #217 ) ;
#160 = ORIENTED_EDGE ( 'NONE', *, *, #167, .T. ) ;
#161 = CLOSED_SHELL ( 'NONE', ( #182, #201, #46, #145, #47 ) ) ;
#162 = CC_DESIGN_APPROVAL ( #27, ( #34 ) ) ;
#163 = CARTESIAN_POINT ( 'NONE',  ( -17.03544993466632500, -8.568543829558391800, -0.0005022733225166137000 ) ) ;
#164 = DATE_AND_TIME ( #8, #155 ) ;
#165 = CARTESIAN_POINT ( 'NONE',  ( -9.992007221626408900E-013, -25.70479008217298800, 0.1273616912432455600 ) ) ;
#166 = DATE_AND_TIME ( #72, #187 ) ;
#167 = EDGE_CURVE ( 'NONE', #10, #209, #29, .T. ) ;
#168 = ORIENTED_EDGE ( 'NONE', *, *, #135, .F. ) ;
#169 = CARTESIAN_POINT ( 'NONE',  ( -3.579200487486120300E-013, -25.39999999999475100, 0.1243591875881615300 ) ) ;
#170 = CARTESIAN_POINT ( 'NONE',  ( 8.517776625942900600, 8.568543829558581800, -0.04245528674349747400 ) ) ;
#171 = CARTESIAN_POINT ( 'NONE',  ( 9.992007221626412800E-016, 4.884981308350691100E-015, 0.1243591875881930200 ) ) ;
#172 = DIRECTION ( 'NONE',  ( 0.0000000000000000000, 0.0000000000000000000, 1.000000000000000000 ) ) ;
#173 = CC_DESIGN_SECURITY_CLASSIFICATION ( #224, ( #34 ) ) ;
#174 =( NAMED_UNIT ( * ) SI_UNIT ( $, .STERADIAN. ) SOLID_ANGLE_UNIT ( ) );
#175 = APPROVAL_STATUS ( 'not_yet_approved' ) ;
#176 = LOCAL_TIME ( 9, 0, 39.00000000000000000, #157 ) ;
#177 = DIRECTION ( 'NONE',  ( 1.000000000000000000, 0.0000000000000000000, 0.0000000000000000000 ) ) ;
#178 = EDGE_CURVE ( 'NONE', #61, #116, #220, .T. ) ;
#179 = ORIENTED_EDGE ( 'NONE', *, *, #81, .F. ) ;
#180 = EDGE_LOOP ( 'NONE', ( #142, #168, #56, #36, #188 ) ) ;
#181 = FACE_OUTER_BOUND ( 'NONE', #223, .T. ) ;
#182 = ADVANCED_FACE ( 'NONE', ( #90 ), #96, .T. ) ;
#183 = CC_DESIGN_PERSON_AND_ORGANIZATION_ASSIGNMENT ( #42, #79, ( #227 ) ) ;
#184 = VECTOR ( 'NONE', #189, 1000.000000000000000 ) ;
#185 = DIRECTION ( 'NONE',  ( 1.000000000000000000, 8.881784197001252300E-016, 0.0000000000000000000 ) ) ;
#186 =( BOUNDED_SURFACE ( )  B_SPLINE_SURFACE ( 3, 3, ( 
 ( #130, #110, #50, #165 ),
 ( #53, #163, #49, #147 ),
 ( #105, #68, #66, #11 ),
 ( #200, #85, #30, #204 ) ),
 .UNSPECIFIED., .F., .F., .F. ) 
 B_SPLINE_SURFACE_WITH_KNOTS ( ( 4, 4 ),
 ( 4, 4 ),
 ( 0.0000000000000000000, 1.000000000000000000 ),
 ( 0.0000000000000000000, 1.000000000000000000 ),
 .UNSPECIFIED. ) 
 GEOMETRIC_REPRESENTATION_ITEM ( )  RATIONAL_B_SPLINE_SURFACE ( (
 ( 1.000000000000000000, 0.9999919136002337600, 0.9999919136002337600, 1.000000000000000000),
 ( 0.9999672676198294600, 0.9999591814847503800, 0.9999591814847503800, 0.9999672676198294600),
 ( 0.9999672676198294600, 0.9999591814847503800, 0.9999591814847503800, 0.9999672676198294600),
 ( 1.000000000000000000, 0.9999919136002337600, 0.9999919136002337600, 1.000000000000000000) ) ) 
 REPRESENTATION_ITEM ( '' )  SURFACE ( )  );
#187 = LOCAL_TIME ( 9, 0, 39.00000000000000000, #3 ) ;
#188 = ORIENTED_EDGE ( 'NONE', *, *, #83, .T. ) ;
#189 = DIRECTION ( 'NONE',  ( 0.0000000000000000000, 0.0000000000000000000, 1.000000000000000000 ) ) ;
#190 = DIRECTION ( 'NONE',  ( -0.0000000000000000000, -0.0000000000000000000, -1.000000000000000000 ) ) ;
#191 = DIRECTION ( 'NONE',  ( 0.0000000000000000000, 0.0000000000000000000, 1.000000000000000000 ) ) ;
#192 = AXIS2_PLACEMENT_3D ( 'NONE', #203, #126, #185 ) ;
#193 = CARTESIAN_POINT ( 'NONE',  ( 25.55281329423390700, -8.568543829558411300, 0.08340273577292760300 ) ) ;
#194 = DIRECTION ( 'NONE',  ( -0.0000000000000000000, -0.0000000000000000000, -1.000000000000000000 ) ) ;
#195 = PERSON_AND_ORGANIZATION_ROLE ( 'creator' ) ;
#196 = CC_DESIGN_APPROVAL ( #25, ( #229 ) ) ;
#197 = ORIENTED_EDGE ( 'NONE', *, *, #178, .T. ) ;
#198 = ORGANIZATION ( 'UNSPECIFIED', 'UNSPECIFIED', '' ) ;
#199 = LINE ( 'NONE', #232, #184 ) ;
#200 = CARTESIAN_POINT ( 'NONE',  ( -25.55114049912469900, 25.70479008217318700, 0.2532114745616986800 ) ) ;
#201 = ADVANCED_FACE ( 'NONE', ( #228 ), #84, .T. ) ;
#202 = DATE_AND_TIME ( #120, #22 ) ;
#203 = CARTESIAN_POINT ( 'NONE',  ( 9.992007221626412800E-016, 4.884981308350691100E-015, 0.1243591875881930200 ) ) ;
#204 = CARTESIAN_POINT ( 'NONE',  ( -9.783840404509192000E-013, 25.70479008217317600, 0.1273616912432455600 ) ) ;
#205 = EDGE_LOOP ( 'NONE', ( #52, #134, #211, #64, #128 ) ) ;
#206 = CARTESIAN_POINT ( 'NONE',  ( 4.547473508864640200E-013, 2.273736754432320100E-013, 2594.000000000000000 ) ) ;
#207 = CARTESIAN_POINT ( 'NONE',  ( 17.03433472214462400, 25.70479008217316900, 0.1693119582426862400 ) ) ;
#208 = CARTESIAN_POINT ( 'NONE',  ( 8.517219016300522600, -25.70479008217299100, 0.1273616912431636800 ) ) ;
#209 = VERTEX_POINT ( 'NONE', #132 ) ;
#210 = APPROVAL_ROLE ( '' ) ;
#211 = ORIENTED_EDGE ( 'NONE', *, *, #62, .T. ) ;
#212 = CC_DESIGN_DATE_AND_TIME_ASSIGNMENT ( #166, #5, ( #229 ) ) ;
#213 = APPROVAL_PERSON_ORGANIZATION ( #86, #27, #41 ) ;
#214 = PERSON ( 'UNSPECIFIED', 'UNSPECIFIED', 'UNSPECIFIED', ('UNSPECIFIED'), ('UNSPECIFIED'), ('UNSPECIFIED') ) ;
#215 = PLANE ( 'NONE',  #12 ) ;
#216 = COORDINATED_UNIVERSAL_TIME_OFFSET ( 2, 0, .AHEAD. ) ;
#217 = DIRECTION ( 'NONE',  ( 1.000000000000000000, 0.0000000000000000000, 0.0000000000000000000 ) ) ;
#218 = CC_DESIGN_DATE_AND_TIME_ASSIGNMENT ( #63, #121, ( #224 ) ) ;
#219 = CARTESIAN_POINT ( 'NONE',  ( 17.03544993466577000, 8.568543829558580100, -0.0005022733224804962100 ) ) ;
#220 = CIRCLE ( 'NONE', #113, 25.39999999999999900 ) ;
#221 = DIRECTION ( 'NONE',  ( 1.000000000000000000, 0.0000000000000000000, 0.0000000000000000000 ) ) ;
#222 = APPROVAL_PERSON_ORGANIZATION ( #225, #25, #20 ) ;
#223 = EDGE_LOOP ( 'NONE', ( #179, #158, #160 ) ) ;
#224 = SECURITY_CLASSIFICATION ( '', '', #139 ) ;
#225 = PERSON_AND_ORGANIZATION ( #214, #198 ) ;
#226 = PRODUCT_DEFINITION_SHAPE ( 'NONE', 'NONE',  #229 ) ;
#227 = PRODUCT ( '110-0555E BK7 pl-cx 50.8 F5000', '110-0555E BK7 pl-cx 50.8 F5000', '', ( #97 ) ) ;
#228 = FACE_OUTER_BOUND ( 'NONE', #205, .T. ) ;
#229 = PRODUCT_DEFINITION ( 'UNKNOWN', '', #34, #26 ) ;
#230 = DIRECTION ( 'NONE',  ( 1.000000000000000000, 0.0000000000000000000, -0.0000000000000000000 ) ) ;
#231 = CARTESIAN_POINT ( 'NONE',  ( -25.39999999999999900, 7.995584178184967200E-015, 5.000000000000000000 ) ) ;
#232 = CARTESIAN_POINT ( 'NONE',  ( -25.39999999999999900, 7.995584178184967200E-015, 0.1243591875881930200 ) ) ;
#233 = CARTESIAN_POINT ( 'NONE',  ( 8.517776625942893500, -8.568543829558402400, -0.04245528674349926400 ) ) ;
#234 = ORIENTED_EDGE ( 'NONE', *, *, #81, .T. ) ;
#235 = CARTESIAN_POINT ( 'NONE',  ( 17.03433472214460300, -25.70479008217299500, 0.1693119582426862400 ) ) ;
ENDSEC;
END-ISO-10303-21;
